» » »

Fenix Tx, Joly Green Dumb Ass Tabs (ver.1)

Artists:  A B C D E F G H I J K L M N O P Q R S T U V W X Y Z # 

Joly Green Dumb Ass Tabs (ver.1)

Fenix Tx Tabs
 Rating:
4/5 (4 votes)
Joly Green Dumb Ass lessons Tabs too difficult? Try these video lessons and learn fast
                this is one of my favorite songs

Intro Octaves 
e|---------------------------------------------------------------------|
B|---------------------------------------------------------------------|
G|---7-----x-----9-------12---11---9-----------------------------------|
D|---------------------------------------------------------------------|
A|---5-----x-----7-------10---9----7-----------------------------------|
E|---------------------------------------------------------------------|

e|---------------------------------------------------------------------|
B|---------------------------------------------------------------------|
G|---7--x-----9-------12----11----14------14---------------------------|
D|---------------------------------------------------------------------|
A|---5--x-----7-------10----9-----12------12---------------------------|
E|---------------------------------------------------------------------|
Play twice

Verse
e|---------------------------------------------------------------------------|
B|---------------------------------------------------------------------------|
G|---------------------------------------------------------------------------|
D|---x--x--7---x--x--7-------------------------------------------------------|
A|---x--x--5---x--x--5----------x--x--7----x--x--7---------------------------|
E|------------------------------x--x--5----x--x--5---------------------------|

e|---------------------------------------------------------------------------|
B|---------------------------------------------------------------------------|
G|---------------------------------------------------------------------------|
D|---------------------------------------------------------------------------|
A|----x-x--5---x-x--5-------x-x--7------x---x---7----------------------------|
E|----x-x--3---x-x--3-------x-x--5------x---x---5----------------------------|
Repeat twice then intro once

Chorus
e|---------------------------------------------------------------------------|
B|---------------------------------------------------------------------------|
G|---------------------------------------------------------------------------|
D|----------------7------5---------------------------------------------------|
A|---5-----7------5------3---------------------------------------------------|
E|---3-----5-----------------------------------------------------------------|
Play twice then

e|--------------------------------------------------------------|
B|--------------------------------------------------------------|
G|--------------------------------------------------------------|
D|--------------5---5---4---------------------------------------|
A|--3---5-------7---3---2-Strum these last 3 once----3---5------|
E|--5---7--------------------------------------------5---7------|

SOLO
b=bend   ~=hold note   h=hammer   s=slide

e|-----------------------------------------|
B|-----------------------------------------|
G|-----------------------------------------|
D|-14b16~(slowly come back)-------12-14-12-|
A|--------------------------12h14----------|
E|-----------------------------------------|

e|--------------------------------------------|
B|--------------------------------------------|
G|----------------11h12h11-11-14-12--11h12h11-|
D|-12-14b16-14-12-----------------------------|
A|--------------------------------------------|
E|--------------------------------------------|

e|-----------------------------14h15h14-12-14-12-|
B|-----------------------------------------------|
G|-----------------------------------------------|
D|-14-12-14s16-14-12-----------------------------|
A|-------------------14-12-----------------------|
E|-----------------------------------------------|

e|------------------------------------|
B|-15-14-15---14-15-14-10s12s10-------|
G|------------------------------12-11-|
D|------------------------------------|
A|------------------------------------|
E|------------------------------------|

e|-------------------------------------------------------------------|
B|-------------------------------------------------------------------|
G|-12-11-9-9s11s9-9----9-11-9--11s12--11-12-12s14-12-11-12-12s14~~~--|
D|------------------12-----------------------------------------------|
A|-------------------------------------------------------------------|
E|-------------------------------------------------------------------|


Then intro twice 
The rest is the same
            
Submit corrections

comments powered by Disqus
↑ Back to top | Fenix Tx Tabs for Joly Green Dumb Ass. Lyrics for acoustic guitar and electric guitar. Tablatures and chords are parodies/interpretations of the original songs. You may use it for private study, scholarship, research or language learning purposes only