» » »

Fenix Tx, Jolly Green Dumb Ass Tabs (ver.3)

Artists:  A B C D E F G H I J K L M N O P Q R S T U V W X Y Z # 

Jolly Green Dumb Ass Tabs (ver.3)

Fenix Tx Tabs
 Rating:
4/5 (4 votes)
Jolly Green Dumb Ass lessons Tabs too difficult? Try these video lessons and learn fast
                Intro Octaves 
e|---------------------------------------------------------------------
B|---------------------------------------------------------------------
G|---7-----------9------12----11---9-----------------------------------
D|---------------------------------------------------------------------
A|---5-----------7------10----9----7-----------------------------------
E|--------------------------------------------------------------------|

e|---------------------------------------------------------------------
B|---------------------------------------------------------------------
G|---7--------9-------12----11----14-----14----------------------------
D|---------------------------------------------------------------------
A|---5--------7-------10-----9----12-----12----------------------------
E|---------------------------------------------------------------------
Play twice

Verse
e|---------------------------------------------------------------------
B|---------------------------------------------------------------------
G|---------------------------------------------------------------------
D|---x--x--7---x--x--7------------------------------------------------
A|---x--x--5---x--x--5----------x--x--7----x--x--7---------------------
E|------------------------------x--x--5----x--x--5---------------------

e|---------------------------------------------------------------------
B|---------------------------------------------------------------------
G|---------------------------------------------------------------------
D|---------------------------------------------------------------------
A|----x-x--5---x-x--5-------x-x--7------x---x---7----------------------
E|----x-x--3---x-x--3-------x-x--5------x---x---5----------------------
Repeat twice then intro once

Chorus
e|---------------------------------------------------------------------
B|---------------------------------------------------------------------
G|---------------------------------------------------------------------
D|----------------7----------------------------------------------------
A|---5-----7------5----------------------------------------------------
E|---3-----5-----------------------------------------------------------
Play twice then
            
Submit corrections

comments powered by Disqus
↑ Back to top | Fenix Tx Tabs for Jolly Green Dumb Ass. Lyrics for acoustic guitar and electric guitar. Tablatures and chords are parodies/interpretations of the original songs. You may use it for private study, scholarship, research or language learning purposes only