» » »

Jean-Claude Trans Am Bass tabs (ver.1)

Artists:  A B C D E F G H I J K L M N O P Q R S T U V W X Y Z # 

Jean-Claude Trans Am Bass tabs (ver.1)

Fenix Tx
Rating:
0/5 (0 votes)

Hard to play? Try these video lessons and learn fast.
                =play a couple of time 
ring=let the note sound 

Intro 
G|-----------------------------|(x2)----------|-----------------------------| 
D|-----------------------------|--------------|-----------------------------| 
A|--0ring--2ring--5ring--0ring-|-0>-2>-5>-0>--|-0ring---------5ring---------| 
E|-----------------------------|--------------|--------2ring---------0ring--| 

Verse x2 
G|--------------| 
D|--------------| 
A|-0>----5>-----| 
E|----2>----0>--| 

Chorus 
G|-----------------------------------------------------------| 
D|----------------------4-5-6-7------------------------------| 
A|--------------5-5-5-5--------------------------------------| 
E|-2-2-2-2-2--2-----------------5-5-5-5-5--5--5-5-5-5-5--5---| 

G|---------------------------------------------------------------| 
D|----------------------4-5-6-7----------------------------------| 
A|--------------5-5-5-5-----------4-5-6-7-5-4-----4-5-6-7-5-4----| 
E|-2-2-2-2-2--2-----------------5-------------7-5-------------5--| 

G|-----------------------------------------------------------| 
D|----------------------4-5-6-7------------------------------| 
A|--------------5-5-5-5--------------------------------------| 
E|-2-2-2-2-2--2-----------------5-5-5-5-5--5--5-5-5-5-5--5---| 

G|--------------------------------------| 
D|----------------------4-5-6-7---------| 
A|--------------5-5-5-5-----------------| 
E|-2-2-2-2-2--2-----------------0ring---| 

(Verse x2) 
(Chorus) 
Outro 
G|(x2)---------|----------------------------------| 
D|-------------|----------------------------------| 
A|-0>-2>-5>-0>-|-0ring-------5ring--------0ring---| 
E|-------------|-------2ring-------0ring----------|End 

Enjoy peolple! 
            
Hard to play? Try these video lessons and learn fast. | Correct




comments powered by Disqus
↑ Back to top | Tablatures and chords are parodies/interpretations of the original songs. You may use it for private study, scholarship, research or language learning purposes only