» » »

Flight Tabs (ver.6)

Artists:  A B C D E F G H I J K L M N O P Q R S T U V W X Y Z # 

Flight Tabs (ver.6)

Fenix Tx
Rating:
0/5 (0 votes)

Hard to play? Try these video lessons and learn fast.
                (0)
(Solo)


------------------------------------------------------------------------------|
---------------------10--12--12--12--12--17--15-------------------------------|
-12--13--13--13--13--10--12--12--12--12----------16--14--16--14---------------|
-13--14--14--14--14-----------------------------------------------------------|
------------------------------------------------------------------------------|
------------------------------------------------------------------------------|


--15--14--12------------------------------------------------------------------|
--------------15--12--15------12-----12-----10-----9-----9-----12-----12------|
--------------------------13-----9------9------9-----9-----9------9------9----|
-----------------------------------9------9------9-----9-----9------9------9--|
------------------------------------------------------------------------------|
------------------------------------------------------------------------------|
                                                           then pick slide
            
Hard to play? Try these video lessons and learn fast. | Correct




comments powered by Disqus
↑ Back to top | Tablatures and chords are parodies/interpretations of the original songs. You may use it for private study, scholarship, research or language learning purposes only