» » »

Flight601 All Got Is Time Bass tabs (ver.1)

Artists:  A B C D E F G H I J K L M N O P Q R S T U V W X Y Z # 

Flight601 All Got Is Time Bass tabs (ver.1)

Fenix Tx
Rating:
0/5 (0 votes)

Hard to play? Try these video lessons and learn fast.
                Intro
G[--------------------------------------------------------------------------]
D[--------------------------------------------------------------------------]
A[--7------9-----------10--9----7------9------------10--9--------------]
E[----------------7------------------------------7-------------------------]

Verse
G[--------------------------------------------------------------------------]
D[----------------------------------------------------------------------------]  x2
A[--77777777777777-------------------99999999999999-------------------------]
E[------------------77777777777777----------------------99999999--77777777--]

Chorus
G[--------------------------------------------------------------------------]
D[--------------------------------------------------------------------------]
A[-777777777777----999999999999---------------------101010101010----999999--]
E[----------------------------------777777777777----------------------------]

Verse
G[--------------------------------------------------------------------------]
D[--------------------------------------------------------------------------] 2X
A[-77777777777777-------------------99999999999999--------------------------]
E[------------------77777777777777--------------------99999999--77777777----]

Chorus
G[--------------------------------------------------------------------------]
D[--------------------------------------------------------------------------] 2X
A[-777777777777----999999999999--------------------101010101010----999999---]
E[---------------------------------777777777777-----------------------------]

Verse
G[--------------------------------------------------------------------------]
D[--------------------------------------------------------------------------] 2X
A[-77777777777777------------------99999999999999---------------------------]
E[------------------77777777777777-----------------------99999999--77777777-]

Chorus
G[--------------------------------------------------------------------------]
D[--------------------------------------------------------------------------] 4X
A[-777777777777----999999999999--------------------101010101010----999999---]
E[--------------------------------777777777777------------------------------]

Solo
G[--------------------------------------------------------------------]
D[--------------------------------------------------------------------]
A[-77777777----99999999-------------10101010--9999--------------------]
E[------------------------77777777------------------------------------]

G[--------------------------------------------------------------------]
D[--------------------------------------------------------------------]
A[-77777777----99999999-------------10--9-----------------------------]
E[------------------------77777777------------------------------------]

End
G[--------------------------------------------------------------------]
D[--------------------------------------------------------------------] 2X
A[-777777777777----999999999999----------------10101010----9999-------]
E[-------------------------------777777777777-------------------------]

G[--------------------------------------------------------------------]
D[--------------------------------------------------------------------]
A[-777777777777----999999999999-----------------10----9----7----------]
E[-------------------------------777777777777-------------------------]
            
Hard to play? Try these video lessons and learn fast. | Correct




comments powered by Disqus
↑ Back to top | Tablatures and chords are parodies/interpretations of the original songs. You may use it for private study, scholarship, research or language learning purposes only