>
 >
Ben

Ben Guitar Tabs

Fenix Tx - Ben chords, tabs, tablatures, lyrics

Guitar lessons | Add/correct | Request | Top 50 tabs Artists:  A B C D E F G H I J K L M N O P Q R S T U V W X Y Z 0-9

Ben Guitar Tabs – Fenix Tx

CD, Sheet music, Poster

Do you like Ben? Share with your friends now
Bass TabsTabsTabs v2Tabs v3Tabs v4


SongTitle: Ben

NOTE--------------------------------#
of the#
research.#


This is a cool new band. You should go get their CD if you like the 
Blink 182 "punk" rock.

Stuff you should know:
p = pull off
x = mute
s = slide
r = ring

-Guitar 1-

Intro (part 1)
   E               E     C    G    D
e|------------------------------------------------|
B|------------------------------------------------|
G|----------------------5555------7777------------|
D|-2-22-22-2-22-22-2222-5555-5555-7777------------|
A|-2-22-22-2-22-22-2222-3333-5555-5555------------|
E|-0-00-00-0-00-00-0000------3333-----------------|

(part2)
   E    C    G    D
e|--------------------------------|
B|--------------------------------|
G|------5555------7777------------|
D|-2222-5555-5555-7777------------|  <---x3
A|-2222-3333-5555-5555------------|
E|-0000------3333-----------------|

-Guitar 2-
Intro (play while G1 is playing the above riff)
e|--------------------------------------------------|
B|-8888888-p7-7-888888888888888888888-p7-77777------|
G|--------------------------------------------------|
D|--------------------------------------------------|
A|--------------------------------------------------|
E|--------------------------------------------------|

-Guitar 1 and 2-

Verse
   E               
e|-----------------|
B|-----------------|
G|-----------------|
D|-2-22-22-2-22-22-|
A|-2-22-22-2-22-22-|
E|-0-00-00-0-00-00-|

   E    C    G    D
e|--------------------------------|
B|--------------------------------|
G|------5555------7777------------|
D|-2222-5555-5555-7777------------|  <---x4
A|-2222-3333-5555-5555------------|
E|-0000------3333-----------------|

-Guitar 2-

(play during the last 2 repeats of the above riff)
e|--------------------------------------------------|
B|-8888888-p7-7-888888888888888888888-p7-77777------|
G|--------------------------------------------------|

-Guitar 1 and 2-

PreChorus
   E               
e|-----------------|
B|-----------------|
G|-----------------|
D|-2-22-22-2-22-22-|
A|-2-22-22-2-22-22-|
E|-0-00-00-0-00-00-|

Chorus
   C         G      D
e|------------------------|
B|------------------------|
G|-5----------------------|
D|-5------xx-5---xx-7-----| <---x4
A|-3------xx-5---xx-7-----|
E|--------xx-3---xx-5-----|

Verse

PreChorus

Chorus

-Guitar 1-
Verse

-Guitar 2-

Solo
e|--------------------------------------------------|
B|-8888888-p7-7-888888888888888888888-p7-77777------|
G|--------------------------------------------------|

e|--------------------------------------------------|
B|-8888888-p7-7-888888888888888888888-s10-12-12-10r-|
G|--------------------------------------------------|

e|-------------------------------------------------------------------|
B|-12-12-12-12-12-12-12-12-12-10-10-10-10--8--7--8r-8-8-8-8-7-7-7-7--|
G|-------------------------------------------------------------------|

*Interlude*

-Guitar 2-
   E
e|------------------|
B|------------------|
G|-9999---9999---99-|
D|-xxxx---xxxx---xx-| <---x6
A|-7777---7777---77-|
E|------------------|

-Guitar 1-

(wait for G2 to play once before playing)
   E
e|------------------|
B|------------------|
G|-9999---9999---99-|
D|-xxxx---xxxx---xx-| <---x5
A|-7777---7777---77-|
E|------------------|

   E    C    G    D
e|-----------------------------|
B|-----------------------------|
G|------5---------7------------|
D|-2----5----5----7------------|  <---x2
A|-2----3----5----5------------|
E|-0---------3-----------------|

Chorus

Verse w/o words

Then G2 ends verse with his verse solo

e|--------------------------------------------------|
B|-8888888-p7-7-888888888888888888888-p7-77777------| <---x3
G|--------------------------------------------------|

Outro

-Guitar 1 and 2-
  
   E               
e|-----------------|
B|-----------------|
G|-----------------|
D|-2-22-22-2-22-22-|
A|-2-22-22-2-22-22-|
E|-0-00-00-0-00-00-|

Well, I did this in 1 hour and 1/2 so I hope it's OK. 
entitled above.

    -Jon





Comments


Popular Fenix Tx tabs & chords
G.B.O.H Bass Tabs
Surf Song Bass Tabs
Threesome Chords
All My Fault Drum Tabs
Abba Zabba Tabs
Katie W (Intro) Tabs
Oblique 1 Tabs
Philosophy 1 Tabs
Skinhead Jessie Tabs
Phoebe Cates Ukulele


Song lyrics



↑ Back to top | Tablatures and chords are parodies/interpretations of the original songs. You may use it for private study, scholarship, research or language learning purposes only
© 2014 AZChords.com Contact us | Privacy policy | DMCA | Add/correct tabs | Request tabs | Top 50 tabs