» » »

Fenix Tx, Beating A Dead Horse Bass tabs (ver.1)

Artists:  A B C D E F G H I J K L M N O P Q R S T U V W X Y Z # 

Beating A Dead Horse Bass tabs (ver.1)

Fenix Tx Tabs
Rating:
0/5 (0 votes)
Beating A Dead Horse lessons Tabs too difficult? Try these video lessons and learn fast
                Tuned 1/2 a step down - Eb Ab Db Gb

Intro:
Gb|---------------------------------|
Db|---------------------------------|
Ab|-3-3-3-3-3-3-3-3-3-3-3-3-3-3-3-3-|
Eb|---------------------------------|

Intro 2: (x4)
Gb|---------------------------------|
Db|---------------------------------|
Ab|-------------------------3-3-3-3-|
Eb|-0-0-0-0-2-2-2-2-3-3-3-3---------|

Gb|-----------------------------|
Db|-----------------------------|
Ab|-2-2-2-2-2-2-2-2-2-2-2-2-2-2-|
Eb|-----------------------------|

Verse 1:(x4)
Gb|---------------------------------|
Db|---------------------------------|
Ab|-------------------------3-3-3-3-|
Eb|-0-0-0-0-2-2-2-2-3-3-3-3---------|

Gb|-----------------------------|
Db|-----------------------------|
Ab|-2-2-2-2-2-2-2-2-2-2-2-2-2-2-|
Eb|-----------------------------|

Chorus 1:
Gb|---------------------|
Db|---------------------|
Ab|---------------3--2~-|(x2)
Eb|-0~---2~---3~--------|

Verse 2:(x4)
Gb|---------------------------------|
Db|---------------------------------|
Ab|-------------------------3-3-3-3-|
Eb|-0-0-0-0-2-2-2-2-3-3-3-3---------|

Gb|-----------------------------|
Db|-----------------------------|
Ab|-2-2-2-2-2-2-2-2-2-2-2-2-2-2-|
Eb|-----------------------------|

Chorus 2:
Gb|---------------------|
Db|---------------------|
Ab|---------------3--2~-|(x4)
Eb|-0~---2~---3~--------|

Post Chorus 1:
Gb|-----------------|
Db|-----------------|
Ab|---------3--2~~~-|(x2)
Eb|-0--2--3---------|

Verse 3:(x4)
Gb|---------------------------------|
Db|---------------------------------|
Ab|-------------------------3-3-3-3-|
Eb|-0-0-0-0-2-2-2-2-3-3-3-3---------|

Gb|-----------------------------|
Db|-----------------------------|
Ab|-2-2-2-2-2-2-2-2-2-2-2-2-2-2-|
Eb|-----------------------------|

Chorus 3:
Gb|---------------------|
Db|---------------------|
Ab|---------------3--2~-|(x4)
Eb|-0~---2~---3~--------|

Bass Solo/Breakdown:
Gb|-----------------------------------------------------|
Db|-----------------------------------------------------|
Ab|-----------------0-2-3-2-3-2-3-2----------------3--2-|(x2)
Eb|-0-2-3-2-3-2-3-2----------------0-2-3-2-3-2-3-2------|

Gb|------------------------------------------------|
Db|------------------------------------------------|
Ab|-----------------0-2-3-2-3-2-3-2----------------|
Eb|-0-2-3-2-3-2-3-2----------------0-2-3-2-3-2-3-2-|

Gb|---------------------------------|
Db|---------------------------------|
Ab|-3--2--3--2--3--2----------------|
Eb|------------------0-2-3-2-0----0-|

Chorus 4:
Gb|---------------------|
Db|---------------------|
Ab|---------------3--2~-|(x4)
Eb|-0~---2~---3~--------|

Outro:
Gb|---------------------------------|
Db|---------------------------------|
Ab|----------3--2~-(x4)-------------|
Eb|-0--2--3--------------0-2-3-2-0--|
            

comments powered by Disqus
↑ Back to top | Fenix Tx Bass for Beating A Dead Horse. Lyrics for acoustic guitar and electric guitar. Tablatures and chords are parodies/interpretations of the original songs. You may use it for private study, scholarship, research or language learning purposes only