» » »

Abba Zabba Bass tabs (ver.1)

Artists:  A B C D E F G H I J K L M N O P Q R S T U V W X Y Z # 

Abba Zabba Bass tabs (ver.1)

Fenix Tx
Rating:
0/5 (0 votes)

Hard to play? Try these video lessons and learn fast.
                I worked out this song when I realised no-one had submitted it 
even though its the best song on the album.

Intro
G|-7>-9>----11>-9>----7>-9>----11>-9>-------|
D|-------0>--------0>-------0>--------0>----|
A|------------------------------------------|
E|------------------------------------------|

Verse - I'm not entirely sure about the part in brackets.
G|------------------(--------)--|
D|------------------(--------)--|
A|-------5>-------5>(7>-4>-0>)--|
E|-3>-5>----3>-5>---(--------)--| x2

Intro
Verse

Chorus - Part in brackets played on second chorus only.
G|-----------------------------------------------------|
D|-----------------------------------------------------|
A|-------5>-------5>-7>-4>-0>-------5>-------5~(5)-(5)-|
E|-3>-5>----3>-5>-------------3>-5>----3>-5>-----------|

Verse
Chorus
Intro

Chorus 2
G|--------------------------------------------------------------|
D|--------------------------------------------------------------|
A|-------5>-------5>-7>-4>-0>-------5>--------5~--5~--5-5-5-5-5-|
E|-3>-5>----3>-5>-------------3>-5>----3~--5~-------------------|

Outro Chorus
G|----------------------------|
D|----------------------------|
A|-------5>-------5>-7>-4>-0>-|
E|-3>-5>----3>-5>-------------| x3

Last Chorus
G|-------------------|
D|-------------------|
A|-------5~-7~-4~-0~-|
E|-3~--5~------------|
            
Hard to play? Try these video lessons and learn fast. | Correct




comments powered by Disqus
↑ Back to top | Tablatures and chords are parodies/interpretations of the original songs. You may use it for private study, scholarship, research or language learning purposes only