» » »

Fences, My Girl The Horse Tabs (ver.2)

Artists:  A B C D E F G H I J K L M N O P Q R S T U V W X Y Z # 

My Girl The Horse Tabs (ver.2)

Fences Tabs
Rating:
0/5 (0 votes)
My Girl The Horse lessons Tabs too difficult? Try these video lessons and learn fast
                Mellow music by a mellow guy! Enjoy! Rate and Comment if you like!

Tuning: Standard (Capo 3rd fret)


Intro

e |-------------------------------|
B |----1-----1------1-------1-----|
G |----2-----0------0-------2-----| (x2)
D |----2-----2------0-------2--2--|
A |-0--0--3--3------2----0--0-----|     
E |----0--------3---3-------0-----|

e |--------------------------------------------------------|
B |--------1-------1---------------1-----1-----------------|
G |--------0-------0--(x1)---------2-----2-----------------|
D |--------2-------2------------2--2-----2—--2-------------|
A |--------3---3---3--0---2--0--------0--------0---2---0---| 
E |----3---3-------3---------------------------------------|

Verse 

e |-----------------------------------------|
B |----1-----1------1-------1---------1-----|
G |----2-----0------0-------2---------2-----| 
D |----2-----2------0-------2--2------2---2-|
A |-0--0--3--3------2----0--0------0--------|   
E |----0--------3---3-------0---------------|
        

Please sir don't you ride on me

e |-------------------------------|
B |----1-----1------1-------1-----|
G |----2-----0------0-------0-----| 
D |----2-----2------0-------2--2--|
A |-0--0--3--3------2----3--3-----|     
E |----0--------3---3-------3-----|

Cause Everyday we fuss and fight

e |-----------------------------------------|
B |----1-----1------1-------1---------1-----|
G |----2-----0------0-------2---------2-----| 
D |----2-----2------0-------2--2------2---2-|
A |-0--0--3--3------2----0--0------0--------|   
E |----0--------3---3-------0---------------|

Please girl don't you die on me

e |-------------------------------|
B |----1-----1------1-------1-----|
G |----2-----0------0-------0-----| 
D |----2-----2------0-------2--2--|
A |-0--0--3--3------2----3--3-----|     
E |----0--------3---3-------3-----|

Cause Everyday we fuss and fight

Interlude (x2)

e |-----------------------------------------------------------|
B |-----1-------1------1-------------------1--------1---------|
G |-----0-------0------0—--(x1)------------0--------0--(x1)---|
D |-----2---2---2------2--2----------------2--------2---------|
A |--0--------------0---------0---2--------3----3---3--3---2--| 
E |-----------------------------------3----3--------3---------|

Chorus 

e |-----------------------------------------|
B |----1-----1------1-------1---------1-----|
G |----2-----0------0-------2---------2-----| 
D |----2-----2------0-------2--2------2---2-|
A |-0--0--3--3------2----0--0------0--------|   
E |----0--------3---3-------0---------------|

“Neither one of us will make it down this hill alive" She said.

Verse

Interlude

Chorus
            

comments powered by Disqus
↑ Back to top | Fences Tabs for My Girl The Horse. Lyrics for acoustic guitar and electric guitar. Tablatures and chords are parodies/interpretations of the original songs. You may use it for private study, scholarship, research or language learning purposes only