» » »

Felt, The World Is As Soft As Lace Bass tabs (ver.1)

Artists:  A B C D E F G H I J K L M N O P Q R S T U V W X Y Z # 

The World Is As Soft As Lace Bass tabs (ver.1)

Felt Tabs
 Rating:
4/5 (4 votes)
The World Is As Soft As Lace lessons Tabs too difficult? Try these video lessons and learn fast
1
                MUSIC:THE WORLD IS AS SOFT AS LACE (SPLENDOUR OF FEAR 1984 CHERRY RED TRACK 8 4:15)
BASS PLAYER:MICK LLOYD

Riff 1
E-0----0-0-0-0-0-0-0-0-5-5-5-5-5-5-5-5-|
A--------------------------------------|
D--------------------------------------|
G--------------------------------------|

Riff 2
E-0-0-0-0-0-0-0-0-5-5-5-5-5-5-5-5-|
A---------------------------------|
D---------------------------------|
G---------------------------------|

Riff 3
E-3-3-3-3-3-3-3-3-3-3-3-3-3-3-5-5-5-5-5---|
A-----------------------------------------|
D-----------------------------------------|
G-----------------------------------------|

Riff 4
E-3-3-3-3-3-3-3-3-3-3-3-3-3-3-3-3-3-3-3-3-3-3-3-3-3-3-3-3-3-3-3-3-5-5-5-5-5-5-5-5-|
A---------------------------------------------------------------------------------|
D---------------------------------------------------------------------------------|
G---------------------------------------------------------------------------------|

5-5-5-5-5-5-5-5-5-5-5-5-5-5-5-5-5-|
----------------------------------|
----------------------------------|
----------------------------------|

Riff 5
E-5-5-5-5---|
A-----------|
D-----------|
G-----------|

Riff 6
E-0-0-0-0-0-0-0-0-0-0-0-3-3-3-3-3-3-5-5-5-5-5-5-0-0-0-0---|
A---------------------------------------------------------|
D---------------------------------------------------------|
G---------------------------------------------------------|

Riff 7
E-0-0-0-0-0-0-0-0-0-0-0-0-3-3-3-3-3-3-5-5-5-5-5-5-|
A-------------------------------------------------|
D-------------------------------------------------|
G-------------------------------------------------|

Riff 1 1X   (00:05)
Riff 2 2X   (00:19)
Riff 3 1X   (00:22)
Riff 4 2X   (00:54)
Riff 5 1X   (01:29)
Riff 6 1X   (01:47)
Riff 7 …X   (02:10)
            
Submit corrections

comments powered by Disqus
↑ Back to top | Felt Bass for The World Is As Soft As Lace. Lyrics for acoustic guitar and electric guitar. 1 Tablatures and chords are parodies/interpretations of the original songs. You may use it for private study, scholarship, research or language learning purposes only