» » »

The Stagnant Pool Bass tabs (ver.1)

Artists:  A B C D E F G H I J K L M N O P Q R S T U V W X Y Z # 

The Stagnant Pool Bass tabs (ver.1)

Felt
Rating:
0/5 (0 votes)

Hard to play? Try these video lessons and learn fast.
                MUSIC:THE STAGNANT POOL (SPLENDOUR OF FEAR 1984 CHERRY RED TRACK 11 8:25)
BASS PLAYER:MICK LLOYD

Riff 1
E-----------------------------------------------------------------|
A-7-7-7-7-7-7-7-7-7-7-7-7-7-7-7-7-3-3-3-3-3-3-3-3-3-3-3-3-3-3-3-3-|
D-----------------------------------------------------------------|
G-----------------------------------------------------------------|

Riff 2
E---------------------------------------------------------------|
A-7-7-7-7-7-7-7-7-7-7-7-7-7-7-7-7-3-3-3-3-3-3-3-3-5-5-5-5-5-5-5-|
D---------------------------------------------------------------|
G---------------------------------------------------------------|

Riff 3
E-------------------------------------------------|
A-7-7-7-7-7-7-7-7-7-7-7-7-7-7-7-7-3-3-3-3-3-3-3-3-|
D-------------------------------------------------|
G-------------------------------------------------|

Riff 4
E---------------------------------|
A-7-7-7-7-7-7-7-7-3-3-3-3-3-3-3-3-|
D---------------------------------|
G---------------------------------|

Riff 5
E---------------------------------|
A-7-7-7-7-7-7-7-7-3-3-3-3-3-3-3-3-|
D---------------------------------|
G---------------------------------|

Riff 6
E-----------------------------------------------------------------------------------------|
A-7-7-7-7-7-7-7-7-7-7-7-7-7-7-7-7-7-7-7-7-7-7-7-7-7-7-7-7-7-7-7-7-7-7-7-7-3-3-3-3-3-3-3-3-|
D-----------------------------------------------------------------------------------------|
G-----------------------------------------------------------------------------------------|

Riff 7
E---------------------------------------------------------------------------------|
A-7-7-7-7-7-7-7-7-7-7-7-7-7-7-7-7-7-7-7-7-7-7-7-7-7-7-7-7-7-7-7-7-7-7-7-7-3-3-3-3-|
D---------------------------------------------------------------------------------|
G---------------------------------------------------------------------------------|

------------------------|
3-3-3-3-5-5-5-5-5-5-5-5-|
------------------------|
------------------------|

Riff 8
E-----------------------------------------------------------------|
A-7-7-7-7-7-7-7-7-7-7-7-7-7-7-7-7-3-3-3-3-3-3-3-3-5-5-5-5-5-5-5-5-|
D-----------------------------------------------------------------|
G-----------------------------------------------------------------|

Riff 9
E-------------------------------------------------------------------|
A-7-7-7-7-7-7-7-7-7-7-7-7-7-7-7-7-3-3-3-3-3-3-3-3-5-5-5-5-5-5-5-5-7-|
D-------------------------------------------------------------------|
G-------------------------------------------------------------------|

Riff 1 1X (00:00)
Riff 2 1X (00:11)
Riff 3 1X (00:21)
Riff 4 1X (00:29)
Riff 5 1X (00:34)
Riff 3 1X (00:42)
Riff 4 2X (00:50)
Riff 5 1X (00:56)
Riff 6  X (01:04)
Riff 5 4X (01:17)
Riff 7 1X (01:59)
Riff 8  X (02:20)
Riff 9 1X (08:08)
            
Hard to play? Try these video lessons and learn fast. | Correct




comments powered by Disqus
↑ Back to top | Tablatures and chords are parodies/interpretations of the original songs. You may use it for private study, scholarship, research or language learning purposes only