» » »

Felt, The Optimist And The Poet Bass tabs (ver.1)

Artists:  A B C D E F G H I J K L M N O P Q R S T U V W X Y Z # 

The Optimist And The Poet Bass tabs (ver.1)

Felt Tabs
 Rating:
4/5 (4 votes)
The Optimist And The Poet lessons Tabs too difficult? Try these video lessons and learn fast
                MUSIC:THE OPTIMIST AND THE POET (SPLENDOUR OF FEAR 1984 CHERRY RED TRACK 9 3:43)
BASS PLAYER:MICK LLOYD

Riff 1
E-5-5-5-5-5-5-5-5-7-7-7-7-7-7-7-7-7-7-7-7-|
A-----------------------------------------|
D-----------------------------------------|
G-----------------------------------------|

Riff 2
E-0------0---------------|
A---------------5------5-|
D------------------------|
G------------------------|

Riff 3
E-----5-5-5-5-5--|
A-7/-------------|
D----------------|
G----------------|

Riff 4
E-------------|
A-------------|
D-2-4-5-7-5-4-|
G-------------|

Riff 5
E-----------------|
A-----------------|
D-2-4-5-7-9-7-5-4-|
G-----------------|

Riff 6
E-5-5-5-5--|
A----------|
D----------|
G----------|

Riff 7
E-0-0-0-0-0-0-0-0-0-0-5-5-5-5-5-5-5-5-|
A-------------------------------------|
D-------------------------------------|
G-------------------------------------|

Riff 8
E-5-5-5-5-5-5-5-5-5-5-5-5-5-5-5-5-5-5-0-|
A---------------------------------------|
D---------------------------------------|
G---------------------------------------|

Riff 1   4X   (00:00)
Riff 2   1X   (00:32)
Riff 3   1X   (00:48)
Riff 4   1X   (01:00)
Riff 5   1X   (01:05)
Riff 6   …X   (01:08)
Riff 7  10X   (02:40)
Riff 8   1X   (03:28)
            
Submit corrections

comments powered by Disqus
↑ Back to top | Felt Bass for The Optimist And The Poet. Lyrics for acoustic guitar and electric guitar. Tablatures and chords are parodies/interpretations of the original songs. You may use it for private study, scholarship, research or language learning purposes only