>
 >
Primitive Painters

Primitive Painters Bass Tabs

Felt - Primitive Painters chords, tabs, tablatures, lyrics

Guitar lessons | Add/correct | Request | Top 50 tabs Artists:  A B C D E F G H I J K L M N O P Q R S T U V W X Y Z 0-9

Primitive Painters Bass Tabs – Felt

CD, Sheet music, Poster

Do you like Primitive Painters? Share with your friends now
Bass Tabs
MUSIC:PRIMITIVE PAINTERS (IGNITE THE SEVEN CANNONS CHERRY RED TRACK 5 5:58)
BASS PLAYER:MARCO THOMAS

Riff 1
E---------|
A-7-------|
D---9---9-|
G-----9---|

Riff 2
E--------------|
A-7-----7----5-|
D---9----------|
G-----9--------|

Riff 3
E--------------------------------------------|
A-6-6------6-3-3------3 4-4------4-6-6-------|
D------8-8---------5-5--------6-6--------8-8-|
G--------------------------------------------|

Riff 4
E-------------------------------------------------------------------|
A-6-6-6-6-6-6-6-6--------3-3-3-3--------4-4-4-4---------6-6-6-6-6-6-|
D-----------------8-6-5----------8-6-5-----------8-6-5--------------|
G-------------------------------------------------------------------|

Riff 5
E-------|
A---7-5-|
D-7-----|
G-------|

Riff 6
E-----------5-5-5-5-------------------|
A-7-7-7-7-----------5-5---3-3---------|
D--------------------------7------5-5-|
G-------------------------------------|

Riff 1   3X   (00:00)
Riff 2   1X   (00:14)
Riff 3   2X   (00:25)
Riff 4   6X   (00:50)
Riff 5   4X   (02:02)
Riff 6   1X   (02:14)
Riff 4  18X   (02:26)





Comments


Popular Felt tabs & chords
The Optimist And The Poet Bass Tabs
The Stagnant Pool Bass Tabs
The World Is As Soft As Lace Bass Tabs
I Didnt Mean To Hurt You Chords
I Didnt Mean To Hurt You Ukulele


Song lyrics



↑ Back to top | Tablatures and chords are parodies/interpretations of the original songs. You may use it for private study, scholarship, research or language learning purposes only
© 2014 AZChords.com Contact us | Privacy policy | DMCA | Add/correct tabs | Request tabs | Top 50 tabs