» » »

Feliciano Jose, Feliz Navidad Bass tabs (ver.1)

Artists:  A B C D E F G H I J K L M N O P Q R S T U V W X Y Z # 

Feliz Navidad Bass tabs (ver.1)

Feliciano Jose Tabs
Rating:
0/5 (0 votes)
Feliz Navidad lessons Tabs too difficult? Try these video lessons and learn fast
                jose feliciano_feliz navidad

TablEdited by Jan Bjorklund   
You are welcome to request for tabs!
Fingering and positions as suggested by TablEdit, please use common sense.


TablEdited by Jan Bjorklund
Tuning : E A D G 	Time Signature: 4/4

  |               |               |               |                 
|-------------------------0----------------------------------------|
|-2-----------------------------------------------2----------------|
|------------------------------------------------------------------|
|------------------------------------------------------------------|

  |               |               |               |                 
|-2-----------------------------------------------2----------------|
|-------------------------2----------------------------------------|
|------------------------------------------------------------------|
|------------------------------------------------------------------|

  |               |               |               |                 
|-----------------2-------0----------------------------------------|
|-0---------------------------------------4---------------2--------|
|------------------------------------------------------------------|
|------------------------------------------------------------------|

  |               |               |               |                 
|------------------------------------------------------------------|
|-0----------------------------------------------------------------|
|------------------------------------------------------------------|
|------------------------------------------------------------------|

  |               |               |               |                 
|-------------------------0----------------------------------------|
|-2-----------------------------------------------2----------------|
|------------------------------------------------------------------|
|------------------------------------------------------------------|

  |               |               |               |                 
|-2-----------------------------------------------2----------------|
|-------------------------2----------------------------------------|
|------------------------------------------------------------------|
|------------------------------------------------------------------|

  |               |               |               |                 
|-------------------------2-----------------------2----------------|
|-0----------------------------------------------------------------|
|------------------------------------------------------------------|
|------------------------------------------------------------------|

  |               |               |               |                 
|-------------------------2----------------------------------------|
|-0-----------------------------------------------0----------------|
|------------------------------------------------------------------|
|------------------------------------------------------------------|

  |               |               |               |                 
|-------------------------9----------------------------------------|
|-------------------------------------------------9----------------|
|-7----------------------------------------------------------------|
|------------------------------------------------------------------|

  |               |               |               |                 
|-2-----------------------------------------------2----------------|
|-------------------------2----------------------------------------|
|------------------------------------------------------------------|
|------------------------------------------------------------------|

  |               |               |               |                 
|-----------------7-------4----------------------------------------|
|-----------------------------------------7---------------4--------|
|-5----------------------------------------------------------------|
|------------------------------------------------------------------|

  |               |               |               |                 
|------------------------------------------------------------------|
|-0----------------------------------------------------------------|
|------------------------------------------------------------------|
|------------------------------------------------------------------|

  |               |               |               |                 
|-------------------------0----------------------------------------|
|-2-----------------------------------------------2----------------|
|------------------------------------------------------------------|
|------------------------------------------------------------------|

  |               |               |               |                 
|-2-----------------------------------------------2----------------|
|-------------------------2----------------------------------------|
|------------------------------------------------------------------|
|------------------------------------------------------------------|

  |               |               |               |                 
|-------------------------2-----------------------2----------------|
|-0----------------------------------------------------------------|
|------------------------------------------------------------------|
|------------------------------------------------------------------|

  |               |               |               |                 
|-------------------------2----------------------------------------|
|-0-----------------------------------------------0----------------|
|------------------------------------------------------------------|
|------------------------------------------------------------------|

  |               |               |               |                 
|-------------------------9----------------------------------------|
|-------------------------------------------------9----------------|
|-7----------------------------------------------------------------|
|------------------------------------------------------------------|

  |               |               |               |                 
|-2-----------------------------------------------2----------------|
|-------------------------2----------------------------------------|
|------------------------------------------------------------------|
|------------------------------------------------------------------|

  |               |               |               |                 
|-----------------7-------4----------------------------------------|
|-----------------------------------------7---------------4--------|
|-5----------------------------------------------------------------|
|------------------------------------------------------------------|

  |               |               |               |                 
|-----------------------------------------9---------------11-------|
|---------12------12------12------12-------------------------------|
|------------------------------------------------------------------|
|-10---------------------------------------------------------------|

  |               |               |               |                 
|-12---------------------------------------------------------------|
|-------------------------12---------------------------------------|
|-------------------------------------------------10---------------|
|------------------------------------------------------------------|

  |               |               |               |                 
|-------------------------9----------------------------------------|
|-7-----------------------------------------------7----------------|
|------------------------------------------------------------------|
|------------------------------------------------------------------|

  |               |               |               |                 
|-------------------------7----------------------------------------|
|-------------------------------------------------7----------------|
|-5----------------------------------------------------------------|
|------------------------------------------------------------------|

  |               |               |               |                 
|-----------------------------------------9---------------11-------|
|---------12------12------12------12-------------------------------|
|------------------------------------------------------------------|
|-10---------------------------------------------------------------|

  |               |               |               |                 
|-12---------------------------------------------------------------|
|-------------------------12---------------------------------------|
|-------------------------------------------------10---------------|
|------------------------------------------------------------------|

  |               |               |               |                 
|-2-----------------------2-----------------------2----------------|
|---------------------------------2--------------------------------|
|------------------------------------------------------------------|
|------------------------------------------------------------------|

  |               |               |               |                 
|---------------------------------0--------------------------------|
|-0-----------------------4---------------4---------------2--------|
|------------------------------------------------------------------|
|------------------------------------------------------------------|

  |               |               |               |                 
|-----------------------------------------9---------------11-------|
|---------12------12------12------12-------------------------------|
|------------------------------------------------------------------|
|-10---------------------------------------------------------------|

  |               |               |               |                 
|-12---------------------------------------------------------------|
|-------------------------12---------------------------------------|
|-------------------------------------------------10---------------|
|------------------------------------------------------------------|

  |               |               |               |                 
|-------------------------9----------------------------------------|
|-7-----------------------------------------------7----------------|
|------------------------------------------------------------------|
|------------------------------------------------------------------|

  |               |               |               |                 
|-------------------------7----------------------------------------|
|-------------------------------------------------7----------------|
|-5----------------------------------------------------------------|
|------------------------------------------------------------------|

  |               |               |               |                 
|-----------------------------------------9---------------11-------|
|---------12------12------12------12-------------------------------|
|------------------------------------------------------------------|
|-10---------------------------------------------------------------|

  |               |               |               |                 
|-12---------------------------------------------------------------|
|-------------------------12---------------------------------------|
|-------------------------------------------------10---------------|
|------------------------------------------------------------------|

  |               |               |               |                 
|-2-----------------------2-----------------------2----------------|
|---------------------------------2--------------------------------|
|------------------------------------------------------------------|
|------------------------------------------------------------------|

  |               |               |               |                 
|---------------------------------0--------------------------------|
|-0-----------------------4---------------4---------------2--------|
|------------------------------------------------------------------|
|------------------------------------------------------------------|

  |               |               |               |                 
|------------------------------------------------------------------|
|-0----------------------------------------------------------------|
|------------------------------------------------------------------|
|------------------------------------------------------------------|

  |               |               |               |                 
|-------------------------0----------------------------------------|
|-2-----------------------------------------------2----------------|
|------------------------------------------------------------------|
|------------------------------------------------------------------|

  |               |               |               |                 
|-2-----------------------------------------------2----------------|
|-------------------------2----------------------------------------|
|------------------------------------------------------------------|
|------------------------------------------------------------------|

  |               |               |               |                 
|-------------------------2-----------------------2----------------|
|-0----------------------------------------------------------------|
|------------------------------------------------------------------|
|------------------------------------------------------------------|

  |               |               |               |                 
|-------------------------2----------------------------------------|
|-0-----------------------------------------------0----------------|
|------------------------------------------------------------------|
|------------------------------------------------------------------|

  |               |               |               |                 
|-------------------------9----------------------------------------|
|-------------------------------------------------9----------------|
|-7----------------------------------------------------------------|
|------------------------------------------------------------------|

  |               |               |               |                 
|-2-----------------------------------------------2----------------|
|-------------------------2----------------------------------------|
|------------------------------------------------------------------|
|------------------------------------------------------------------|

  |               |               |               |                 
|-----------------7-------4----------------------------------------|
|-----------------------------------------7---------------4--------|
|-5----------------------------------------------------------------|
|------------------------------------------------------------------|

  |               |               |               |                 
|-----------------------------------------9---------------11-------|
|---------12------12------12------12-------------------------------|
|------------------------------------------------------------------|
|-10---------------------------------------------------------------|

  |               |               |               |                 
|-12---------------------------------------------------------------|
|-------------------------12---------------------------------------|
|-------------------------------------------------10---------------|
|------------------------------------------------------------------|

  |               |               |               |                 
|-------------------------9----------------------------------------|
|-7-----------------------------------------------7----------------|
|------------------------------------------------------------------|
|------------------------------------------------------------------|

  |               |               |               |                 
|-------------------------7----------------------------------------|
|-------------------------------------------------7----------------|
|-5----------------------------------------------------------------|
|------------------------------------------------------------------|

  |               |               |               |                 
|-----------------------------------------9---------------11-------|
|---------12------12------12------12-------------------------------|
|------------------------------------------------------------------|
|-10---------------------------------------------------------------|

  |               |               |               |                 
|-12---------------------------------------------------------------|
|-------------------------12---------------------------------------|
|-------------------------------------------------10---------------|
|------------------------------------------------------------------|

  |               |               |               |                 
|-2-----------------------2-----------------------2----------------|
|---------------------------------2--------------------------------|
|------------------------------------------------------------------|
|------------------------------------------------------------------|

  |               |               |               |                 
|---------------------------------0--------------------------------|
|-0-----------------------4---------------4---------------2--------|
|------------------------------------------------------------------|
|------------------------------------------------------------------|

  |               |               |               |                 
|-----------------------------------------9---------------11-------|
|---------12------12------12------12-------------------------------|
|------------------------------------------------------------------|
|-10---------------------------------------------------------------|

  |               |               |               |                 
|-12---------------------------------------------------------------|
|-------------------------12---------------------------------------|
|-------------------------------------------------10---------------|
|------------------------------------------------------------------|

  |               |               |               |                 
|-------------------------9----------------------------------------|
|-7-----------------------------------------------7----------------|
|------------------------------------------------------------------|
|------------------------------------------------------------------|

  |               |               |               |                 
|-------------------------7----------------------------------------|
|-------------------------------------------------7----------------|
|-5----------------------------------------------------------------|
|------------------------------------------------------------------|

  |               |               |               |                 
|-----------------------------------------9---------------11-------|
|---------12------12------12------12-------------------------------|
|------------------------------------------------------------------|
|-10---------------------------------------------------------------|

  |               |               |               |                 
|-12---------------------------------------------------------------|
|-------------------------12---------------------------------------|
|-------------------------------------------------10---------------|
|------------------------------------------------------------------|

  |               |               |               |                 
|-2-----------------------2-----------------------2----------------|
|---------------------------------2--------------------------------|
|------------------------------------------------------------------|
|------------------------------------------------------------------|

  |               |               |               |                 
|---------------------------------0--------------------------------|
|-0-----------------------4---------------4---------------2--------|
|------------------------------------------------------------------|
|------------------------------------------------------------------|

  |               |               |               |                 
|------------------------------------------------------------------|
|-0----------------------------------------------------------------|
|------------------------------------------------------------------|
|------------------------------------------------------------------|

  |               |               |               |                 
|-------------------------0----------------------------------------|
|-2-----------------------------------------------2----------------|
|------------------------------------------------------------------|
|------------------------------------------------------------------|

  |               |               |               |                 
|-2-----------------------------------------------2----------------|
|-------------------------2----------------------------------------|
|------------------------------------------------------------------|
|------------------------------------------------------------------|

  |               |               |               |                 
|-------------------------2-----------------------2----------------|
|-0----------------------------------------------------------------|
|------------------------------------------------------------------|
|------------------------------------------------------------------|

  |               |               |               |                 
|-------------------------2----------------------------------------|
|-0-----------------------------------------------0----------------|
|------------------------------------------------------------------|
|------------------------------------------------------------------|

  |               |               |               |                 
|-------------------------9----------------------------------------|
|-------------------------------------------------9----------------|
|-7----------------------------------------------------------------|
|------------------------------------------------------------------|

  |               |               |               |                 
|-2-----------------------------------------------2----------------|
|-------------------------2----------------------------------------|
|------------------------------------------------------------------|
|------------------------------------------------------------------|

  |               |               |               |                 
|-----------------7-------4----------------------------------------|
|-----------------------------------------7---------------4--------|
|-5----------------------------------------------------------------|
|------------------------------------------------------------------|

  |               |               |               |                 
|-----------------2------------------------------------------------|
|-0-----------------------0----------------------------------------|
|------------------------------------------------------------------|
|------------------------------------------------------------------|
            
Submit corrections

comments powered by Disqus
↑ Back to top | Feliciano Jose Bass for Feliz Navidad. Lyrics for acoustic guitar and electric guitar. Tablatures and chords are parodies/interpretations of the original songs. You may use it for private study, scholarship, research or language learning purposes only