» » »

Feist, Past In Present Bass tabs (ver.1)

Artists:  A B C D E F G H I J K L M N O P Q R S T U V W X Y Z # 

Past In Present Bass tabs (ver.1)

Feist Tabs
Rating:
0/5 (0 votes)
Past In Present lessons Tabs too difficult? Try these video lessons and learn fast
                -------------------------------------------------------------------------------
-------------------------------------------------------------------------------

Intro
G|------------------------------|
D|------------------------------|
A|5555555-55--------------------|
E|--------------777777-55555555-| x2

Verse
G|---------------------------------|
D|---------------------------------|
A|555-555-5-5-555------------------|
E|----------------7-7-777-55-5-55--|x4

Pre-Chorus "So much present.."
G|--------------------------------|
D|--------------------------------|
A|------------5~------------------|
E|-3~-3~--32~-----3~--3~-32---5~--|

Chorus
G|-------------------------------|
D|-------------------------------|
A|-------------------------------|
E|-5/10101010-7-7-7777-5-5-5555--| x2

Verse
G|-------------------------------|
D|-------------------------------|
A|-------------------------------|
E|-5/10101010-7-7-7777-5-5-5555--| x4

Pre-Chorus x1

Outro Chorus
G|---------------------------------------------------------------------------------|
D|---------------------------------------------------------------------------------|
A|---------------------------------------555555555555555---------------------------|
E|3-33333333333333333333-3222222222222222---------------55555555555-222/77777777777|

G|-------------------------------|
D|-------------3/77777777--0~----|
A|-------------------------------|
E|3333333333333------------------| 
 
            
Submit corrections

comments powered by Disqus
↑ Back to top | Feist Bass for Past In Present. Lyrics for acoustic guitar and electric guitar. Tablatures and chords are parodies/interpretations of the original songs. You may use it for private study, scholarship, research or language learning purposes only