» » »

My Moon My Man Bass tabs (ver.1)

Artists:  A B C D E F G H I J K L M N O P Q R S T U V W X Y Z # 

My Moon My Man Bass tabs (ver.1)

Feist
Rating:
5/5 (3 votes)

Hard to play? Try these video lessons and learn fast.
                -------------------------------------------------------------------------------
-------------------------------------------------------------------------------

Intro
G|-----------------------------------------|
D|---------------------2-2-2-2-2-2---------|
A|0-0-0-0-0-0-0-0--3-3---------------------|
E|---------------------------------3-3-----| x2

Verse
G|-----------------------------------------|
D|---------------------2-2-2-2-2-2---------|
A|0-0-0-0-0-0-0-0--3-3---------------------|
E|---------------------------------3-3-----| x4

Chorus
G|--------------------------------------------------------------------------|
D|---------------------2-2-2-2-2-2--------------------------------------5---|
A|0-0-0-0-0-0-0-0--3-3-----------------0-0-0-0-0-0-0-3-3-3-3-3-3-3-3-33---3-|
E|---------------------------------3-3--------------------------------------|

Intro x2
Verse x2
Chorus x4

Keep playing Intro until the end of song
            
Hard to play? Try these video lessons and learn fast. | Correct




comments powered by Disqus
↑ Back to top | Tablatures and chords are parodies/interpretations of the original songs. You may use it for private study, scholarship, research or language learning purposes only