» » »

Feist, Intuition Tabs (ver.2)

Artists:  A B C D E F G H I J K L M N O P Q R S T U V W X Y Z # 

Intuition Tabs (ver.2)

Feist Tabs
 Rating:
4.2/5 (5 votes)
Intuition lessons Tabs too difficult? Try these video lessons and learn fast
1
                -------------------------------------------------------------------------------
                            Intuition - Feist
-------------------------------------------------------------------------------

Tuning: Standard

Intro Part 1:
            Repeat this line twice, but the pickup note (B) only gets played the 
first time trough.
e|--------------------------------------------------------------------------|
B|------------------------5--7----5------------------------------7---5------|
g|-4-----7-----7-----7-------7------7------7-----7-----6---------6------7---|
d|-------0-----0-----0---------------------0-----0-----7--------------------|
a|----7-----7-----7---------------------------------------------------------|
E|--------------------------------------7------7-----5-------5--------------|

Intro Part 2:       Repeat twice

e|--------------------------------------------------------------------------|
B|--------10-p8-p7-----7------7---10--------7-----------------------7---5---|
G|-----------------------------------7------7------7----7-----6-----6-----7-|
D|-------------------------------------------------0----0-----7-------------|
A|---/7-------------7------7------------7-----------------------------------|
E|----------------------------------------------7-----7-----5----5----------|

Verse: play this 3 times, heavily muted.

e|--------------------------------------------------------------------------|
B|--------------------------------------------------------------------------|
G|--------------------------------------------------------------------------|
D|-------0-----0-----0-----0------0------0----------------------------------|
A|----7-----7-----7-----7-----------------------4-----4---------------------|
E|-----------------------------7-----7------5------5------------------------|
    

 after she says "it's not about a boy,"

e|--------------------------------------------------------------------------|
B|--------------------------------------------------------------------------|
G|--------------------------------------------------------------------------|
D|------0-------0-------0-------0-------------------------------------------|
A|---7------7------7--------7-----------------------------------------------|
E|--------------------------------------------------------------------------|


           Then play a G bar chord followed by an A bar chord and repeat however many times.


the rest of the song is  a mix of these parts with a few variations.



************************************

| /   slide up
| \   slide down
| h   hammer-on
| p   pull-off
| ~   vibrato
| +   harmonic
| x   Mute note
| b   Bend
| pb  Pre-bend
| br  Bend release
| pbr Pre-bend release
| brb Bend release bend

************************************
            
Submit corrections

comments powered by Disqus
↑ Back to top | Feist Tabs for Intuition. Lyrics for acoustic guitar and electric guitar. 1 Tablatures and chords are parodies/interpretations of the original songs. You may use it for private study, scholarship, research or language learning purposes only