» » »

Honey Honey Bass tabs (ver.1)

Artists:  A B C D E F G H I J K L M N O P Q R S T U V W X Y Z # 

Honey Honey Bass tabs (ver.1)

Feist
Rating:
5/5 (1 vote)

Tabs too difficult? Try these video lessons and learn fast.
                -------------------------------------------------------------------------------
-------------------------------------------------------------------------------

The riff throughout the whole song.  It's played by some other instrument but I put it 
bass parts just for fun!


G|-----5-----------------|
D|---5---5---------------|
A|-3-------3-6-----------|
E|-------------6--3------|

Bridge
G|----------------------|
D|-----5~--------5~-----|
A|-8~-------8~----------|
E|----------------------| x2
            
Tabs too difficult? Try these video lessons and learn fast.


comments powered by Disqus
↑ Back to top | Tablatures and chords are parodies/interpretations of the original songs. You may use it for private study, scholarship, research or language learning purposes only