» » »

Feist, Gatekeeper Tabs (ver.2)

Artists:  A B C D E F G H I J K L M N O P Q R S T U V W X Y Z # 

Gatekeeper Tabs (ver.2)

Feist Tabs
 Rating:
4/5 (4 votes)
Gatekeeper lessons Tabs too difficult? Try these video lessons and learn fast
                Hi, 
that´s how i would play it. it might be not a 100% right, but i think it sounds 
pretty good this way. have fun! i hope you´ll enjoy it ;)

Intro 1x / Verse 2x
E|--------|-----|----------|------|--------|-----|--------|-----|
B|--------|-----|----------|------|--------|-----|-----0--|--0--|
G|-----5--|--5--|------10--|--10--|-----7--|--7--|-----7--|--7--|
D|-----5--|--5--|------10--|--10--|-----7--|--7--|-----6--|--6--|
A|--------|-----|----------|------|--------|-----|--7-----|--7--|
E|--5-----|--5--|--10------|--10--|--7-----|--7--|--------|-----|

Pre-Chorus
E|--------|------------|----|----|----|----|-----|
B|--------|------------|----|----|----|--0-|--0--|
G|--10-10-|--10/-12--9-|--9-|--7-|--7-|--7-|--7--|
D|--10-10-|--10/-12--9-|--9-|--7-|--7-|--6-|--6--|
A|--------|------------|----|----|----|--7-|--7--|
E|--10-10-|--10/-12--8-|--8-|--7-|--7-|----|-----|

E|--------|------------|----|----|----|----|
B|--------|------------|----|----|----|--0-|
G|--10-10-|--10/-12--9-|--9-|--7-|--7-|--7-| let ring
D|--10-10-|--10/-12--9-|--9-|--6-|--6-|--6-|
A|--------|------------|----|----|----|--7-|
E|--10-10-|--10/-12--8-|--8-|--6-|--6-|----|

Chorus
|----|----|----|----|----|----|----|----|
|----|----|----|----|----|----|----|----|
|--2-|--2-|--4-|--4-|--5-|--5-|--5-|--5-|
|--2-|--2-|--3-|--3-|--5-|--5-|--5-|--5-|
|----|----|----|----|----|----|----|----|
|--1-|--1-|--3-|--3-|--5-|--5-|--5-|--5-|

|----|----|----|----|----|----|----|
|----|----|----|----|----|----|--0-|
|--2-|--2-|--7-|--7-|--7-|--7-|--7-| let ring
|--2-|--2-|--6-|--6-|--7-|--7-|--6-|
|----|----|----|----|----|----|--7-|
|--1-|--1-|--6-|--6-|--6-|--6-|--0-|

Bridge
|----|----|-----|--------|
|----|----|-----|--------|
|--5-|--5-|--10-|--10----| 3x
|--5-|--5-|--10-|--10----|
|----|----|-----|--------|
|--5-|--5-|--10-|--10----|

Outro
|----|----|-----|----|------|
|----|----|-----|----|------|
|--5-|--5-|--10-|--4-|--9---|let ring
|--5-|--5-|--10-|--3-|--9---|
|----|----|-----|----|------|
|--5-|--5-|--10-|--3-|--8---|
            
Submit corrections

comments powered by Disqus
↑ Back to top | Feist Tabs for Gatekeeper. Lyrics for acoustic guitar and electric guitar. Tablatures and chords are parodies/interpretations of the original songs. You may use it for private study, scholarship, research or language learning purposes only