>
 >
Gatekeeper

Gatekeeper Guitar Tabs

Feist - Gatekeeper chords, tabs, tablatures, lyrics

Guitar lessons | Add/correct | Request | Top 50 tabs Artists:  A B C D E F G H I J K L M N O P Q R S T U V W X Y Z 0-9

Gatekeeper Guitar Tabs – Feist

CD, Sheet music, Poster

Do you like Gatekeeper? Share with your friends now
ChordsChords v2TabsTabs v2Ukulele
Feist - Gatekeeper 

voila, here it is, as performed on KCRW in 2005

Tuning: Standard


Intro/Verse

---------------|----------------------|---------------|--------------------|
---------------|----------------------|---------------|--------------------|
--------5-5-x--|-----10--x---10-10-x--|--------7-7-x--|--------------------|
--------5-5-x--|-----10--x---10-10-x--|--------7-7-x--|------12-x-12-------|
---------------|----------------------|---------------|------11-x-12-------|
--5--x---------|--10-----x------------|--7--x---------|--12----------------|




Bridge

--------------------|---------------|-----------------------|--------------|
--------------------|---------------|-----------------------|--------------|
------10-x-10-10-x--|--------9-9-x--|--------7-7-x-7-7-x-7--|--12--12------|
------10-x-10-10-x--|--------9-9-x--|--------6-6-x-6-6-x-6--|--12--12------|
--------------------|---------------|-----------------------|--11--11------|
--10----------------|--8--x---------|--6--x--------------6--|--12--12------|


--------------------|---------------|--------------------|-----------------|
--------------------|---------------|--------------------|-----------------|
------10-x-10-10-x--|--------5-5-x--|-----7-x-7-7-x------|-----------------|
------10-x-10-10-x--|--------5-5-x--|-----7-x-7-7-x------|-----------------|
--------------------|---------------|--------------------|-----------------|
--10----------------|--5--x---------|--7-----------------|--12-------------|



Chorus 1

----------------|----------------|-----------------|-----------------|
----------------|----------------|-----------------|-----------------|
----------------|----------------|-----5-x-5-5-x---|-----5-x-5-5-x---|
----------------|----------------|-----5-x-5-5-x---|-----5-x-5-5-x---|
----------------|----------------|-----------------|-----------------|
---1------------|---3------------|---5-------------|---5-------------|


----------------|--------------------------|-------------------------|
----------------|--------------------------|-------------------------|
----------------|-------7-7-x-7-7-x-7-7-x--|-------4-------4---------|
----------------|-------6-6-x-6-6-x-6-6-x--|-------------------------|
----------------|--------------------------|-----5---------5---------|
---1------------|---6-x--------------------|---3-----------3---------|




Chorus 2

----------------|----------------|-----------------|-----------------|
----------------|----------------|-----------------|-----------------|
----------------|-----4-x-4-4-x--|-----5-x-5-5-x---|-----5-x-5-5-x---|
----------------|-----3-x-3-3-x--|-----5-x-5-5-x---|-----5-x-5-5-x---|
----------------|----------------|-----------------|-----------------|
---1------------|---3------------|---5-------------|---5-------------|


----------------|--------------------------|-------------------------|
----------------|--------------------------|-------------------------|
-----2-x-2-2----|-------7-7-x-7-7-x-7-7-x--|-------4-------4---------|
-----3-x-3-3----|-------6-6-x-6-6-x-6-6-x--|-------------------------|
----------------|--------------------------|-----5---------5---------|
---1------------|---6-x--------------------|---3-----------3---------|




Outro (reptition of 'gatekeeper')

-----------------|--------------------|
-----------------|--------------------|
-----5-x-5-5-x---|------10-x-10-10-x--|    (repeat as needed)
-----5-x-5-5-x---|------10-x-10-10-x--|
-----------------|--------------------|
---5-------------|---10---------------|


 seasons             wait....               (slow strum and let ring)
-----------------|------------------------|--------------------------|
-----------------|------------------------|--------------------------|
-----------------|--------4----------4----|---9----------------------|
-----------------|-----3-----3------------|---9----------------------|
-----------------|------------------------|---7----------------------|
--10-------------|--3-----------3---------|---8----------------------|





Comments


Popular Feist tabs & chords
Honey Honey Bass Tabs
1 2 3 4 6 Chords
Gatekeeper Chords
Mushaboom Chords
Train Song 4 Chords
One Two Three Four Tabs
Inside And Out Ukulele
Look At What The Light Did Now Ukulele
So Sorry Ukulele
Tout Doucement Ukulele


Song lyrics



↑ Back to top | Tablatures and chords are parodies/interpretations of the original songs. You may use it for private study, scholarship, research or language learning purposes only
© 2014 AZChords.com Contact us | Privacy policy | DMCA | Add/correct tabs | Request tabs | Top 50 tabs