» » »

Feist, 1 2 3 4 Tabs (ver.1)

Artists:  A B C D E F G H I J K L M N O P Q R S T U V W X Y Z # 

1 2 3 4 Tabs (ver.1)

Feist Tabs
 Rating:
4/5 (18 votes)
1 2 3 4 lessons Tabs too difficult? Try these video lessons and learn fast
1
                -------------------------------------------------------------------------------
			     1 2 3 4- Feist
-------------------------------------------------------------------------------

(This is the a live version)

Tuning: Standard

Intro x2 (same thing)
Verse Pt.1 x2 (One, Two, Three...)

e|------------------------------------|
B|------------------------------------|
G|------------------------------------|
D|-------0---------0--------0--------0|
A|5--x-----4--x------2--x-------------|
E|----------------------------3--x----|

Verse Pt.2 x2 (Old teenage hopes...)

	Don't play I guess (or scroll to the very bottom and play the banjo part)

Chorus x2 (Oh Oh theme)

e|---5-------5--5-----3---------3--3--|
B|---5-------5--5-----3---------3--3--|
G|6--6----6--6--6--4--4----4----4--4--|
D|7--7----7--7--7--5--5----5----5--5--|
A|7--7----7--7--7--5--5----5----5--5--|
E|5--5----5--5--5--3--3----3----3--3--|

Verse Pt.2 x2 (Sweetheart bitter heart...)
e|------------------------------------|
B|------------------------------------|
G|------------------------------------|
D|-------0---------0-------0---------0|
A|5--5-----4--4------2--2-------------|
E|---------------------------3-2-3----|

Verse Pt.2 x2 (Those teenage hopes...)

	Don't play I guess

Chorus x4 (Oh Oh theme)

e|---5-------5--5-----3---------3--3--|
B|---5-------5--5-----3---------3--3--|
G|6--6----6--6--6--4--4----4----4--4--|
D|7--7----7--7--7--5--5----5----5--5--|
A|7--7----7--7--7--5--5----5----5--5--|
E|5--5----5--5--5--3--3----3----3--3--|

Verse Pt.1 x8 (One, Two, Three...)

e|------------------------------------|
B|------------------------------------|
G|------------------------------------|
D|-------0---------0--------0--------0|
A|5--x-----4--x------2--x-------------|
E|----------------------------3--x----|


Chorus x4 (Oh Oh theme)

e|---5-------5--5-----3---------3--3--|
B|---5-------5--5-----3---------3--3--|
G|6--6----6--6--6--4--4----4----4--4--|
D|7--7----7--7--7--5--5----5----5--5--|
A|7--7----7--7--7--5--5----5----5--5--|
E|5--5----5--5--5--3--3----3----3--3--|

Strum Triplet Feel x1 (with feeling)

e|3--3--3--3--3--3--3--3--3--3--3--3--|
B|3--3--3--3--3--3--3--3--3--3--3--3--|
G|4--4--4--4--4--4--4--4--4--4--4--4--|
D|5--5--5--5--5--5--5--5--5--5--5--5--|
A|5--5--5--5--5--5--5--5--5--5--5--5--|
E|4--4--4--4--4--4--4--4--4--4--4--4--|

Bridge Outro thing (till boredom strikes)
e|x---x----x---x----x---x----x---x----|
B|x---x----x---x----x---x----x---x----|
G|7---7----9---9----x---x----4---4----|
D|7---7----9---9----9---9----5---5----|
A|5---5----7---7----9---9----5---5----|
E|x---x----x---x----7---7----3---3----|

_______________________________________________________________________

Banjo (Starts at first Chorus)

Chorus x2 (Oh Oh theme)

D|--7--------7--------5--------5------|
B|-------5-------5---------3-------3--|
G|----6--------6--------4-------4-----|
D|7--------7-------5--------5---------|
G|------------------------------------|

Verse Pt.1 x2 (Sweetheart bitter heart...)
D|------------------------------------|
B|3-----3-2-----2---------------------|
G|----------------4-----4--2--2--4--4-|
D|0--0----0--0----0--0-----0----------|
G|------------------------------------|


Verse Pt.2 x2 (Those teenage hopes...)

D|----------------------9--------5----|
B|--7---X----8---X--------7--------3--|
G|----7--------9------7--------4------|
D|7--------9--------9--------3--------|
G|------------------------------------|

Chorus x2 (Oh Oh theme)

D|--7--------7--------5--------5------|
B|-------5-------5---------3-------3--|
G|----6--------6--------4-------4-----|
D|7--------7-------5--------5---------|
G|------------------------------------|

Verse Pt.1 x8 (One, Two, Three...)
D|------------------------------------|
B|3-----3-2-----2---------------------|
G|----------------4-----4--2--2--4--4-|
D|0--0----0--0----0--0-----0----------|
G|------------------------------------|

Chorus x4 (Oh Oh theme)

D|--7--------7--------5--------5------|
B|-------5-------5---------3-------3--|
G|----6--------6--------4-------4-----|
D|7--------7-------5--------5---------|
G|------------------------------------|

Strum it or roll it fast for one bar

D|--5--------5--------5--------5------|
B|-------3-------3---------3-------3--|
G|----4-------4--------4-------4------|
D|5--------5-------5--------5---------|
G|------------------------------------|


Bridge (the solos) Play rolls over the chords and play some licks
D|------------------9-----------9-----|7--------9--------9--------9----------|
B|7--7---7-8--8---8---7----7-8-----8--|7--------8--------7--------8----------|
G|---7--------9----------7-------7----|7--------9--------7--------7----------|
D|7--------9--------9--------9--------|7--------9--------9--------9----------|
G|------------------------------------|--------------------------------------|

Outro (Something like that)
D|--------7------------9--7-----------|------9---------------9---------------|
B|--7---7---7---7---7--------7-7\5----|---5-----7--7\5-----5-----7--7\5------|
G|7---------------9---------------7---|7----------------7--------------------|
D|------------------------------------|----------------------------------0---|
G|------------------------------------|--------------------------------------|

The guitar chords to pluck over to emulate the banjo verse Pt.2 thang

e|----------7----3-----------------------------------------------------------|
B|7----8----7----3-----------------------------------------------------------|
G|7----9----7----4-----------------------------------------------------------|
D|7----9----9----5-----------------------------------------------------------|
A|---------------------------------------------------------------------------|
E|---------------------------------------------------------------------------|


| /  slide up
| \  slide down
| h  hammer-on
| p  pull-off
| ~  vibrato
| +  harmonic
| x  Mute note
===============================================================================
            
Submit corrections

comments powered by Disqus
↑ Back to top | Feist Tabs for 1 2 3 4. Lyrics for acoustic guitar and electric guitar. 1 Tablatures and chords are parodies/interpretations of the original songs. You may use it for private study, scholarship, research or language learning purposes only