>
 >
Try No More

Try No More Guitar Tabs

Fei Comodo - Try No More chords, tabs, tablatures, lyrics

Guitar lessons | Add/correct | Request | Top 50 tabs Artists:  A B C D E F G H I J K L M N O P Q R S T U V W X Y Z 0-9

Try No More Guitar Tabs – Fei Comodo

CD, Sheet music, Poster

Do you like Try No More? Share with your friends now
Tabs
Fei Comodo
Guitar Tab
Drop D Tuning


x Muted String (Dead Note)
/ Slide Up
\ Slide Down
h Hammer On
R Ring Out/Hold Note
v Vibrato
+ Natural Harmonic
t Tremelo 



Intro 


Rhythm Guitar
0:01
|-------------------------|
|-------------------------|
|-------------------------|
|44444444444444-7-0R------| x2
|44444444444444-7-0R------|
|44444444444444-7-0R------|

Lead Guitar
0:01
|-------------------------|
|777777777777777-7R-------|
|xxxxxxxxxxxxxxx-x--------|
|444444444444444-4R-------| x2
|-------------------------|
|-------------------------|

0:10
|-----4/5-4-5-5/7-5-4-5-4--|
|5/7v---------------------5|
|--------------------------|
|--------------------------| x1
|--------------------------|
|--------------------------|


Verse One


Rhythm Guitar
0:14
|------------------------|
|------------------------|
|-----------------------2|
|-------------------2h4--| x3
|44--44-44-00-00-00------|
|44--44-44-00-00-00------|
     .  .  .. .. ..

|----------------------|
|----------------------|
|----------------------|
|----------------------| x1
|44--44-44-00-00-00-000|
|44--44-44-00-00-00-000|
     .  .  .. .. .. ...

Lead Guitar
0:14
|-----4/5-4-5-5/7-5-4-5-4--|-----4/5-4-5-5/7-5-7-7/9-7--|
|5/7v---------------------5|5/7v-----------------------5|
|--------------------------|----------------------------|
|--------------------------|----------------------------| x1
|--------------------------|----------------------------|
|--------------------------|----------------------------|

|-----4/5-4-5-5/7-5-4-5-4--|-----4/5-4-5-5/7-5-7-7/9-7h9--|
|5/7v---------------------5|5/7v-------------------------5|
|--------------------------|------------------------------|
|--------------------------|------------------------------| x1
|--------------------------|------------------------------|
|--------------------------|------------------------------|


Intro Riff


Rhythm Guitar
0:30
|-------------------------|
|-------------------------|
|-------------------------|
|44444444444444-7-0R------| x2
|44444444444444-7-0R------|
|44444444444444-7-0R------|

Lead Guitar
0:30
|-------------------------|
|777777777777777-7R-------|
|xxxxxxxxxxxxxxx-x--------|
|444444444444444-4R-------| x2
|-------------------------|
|-------------------------|


Pre Chorus


Rhythm Guitar
0:38
|------------------------------------------------------------------|
|------------------------------------------------------------------|
|------------------------------------------------------------------|
|44444444444444444444444444444444444444444444444444444444444444-7--|
|44444444444444444444444444444444444444444444444444444444444444----|
|44444444444444444444444444444444444444444444444444444444444444----|
 .............................................................. +

Lead Guitar
0:38
|----------------------------------------------------->
|77777777-99999999-1010101010101010-1212121212121212-->
|xxxxxxxx-xxxxxxxx--x-x-x-x-x-x-x-x--x-x-x-x-x-x-x-x-->
|44444444-66666666--7-7-7-7-7-7-7-7--9-9-9-9-9-9-9-9-->
|----------------------------------------------------->
|----------------------------------------------------->

0:42
|-----------------------------------------------------------|
|1414141414141414-1515151515151515-1717171717171717-1919---7|
|-x-x-x-x-x-x-x-x--x-x-x-x-x-x-x-x--x-x-x-x-x-x-x-x--x-x----|
|1111111111111111-1212121212121212-1414141414141414-1616----| x1
|-----------------------------------------------------------|
|-----------------------------------------------------------|
                                                           +

Chorus One


Rhythm Guitar
0:47
|-------------------------------------------------|
|-------------------------------------------------|
|-------------------------------------------------|
|444-444-4444-000-000-000-999-999-9999-0-0-0-2-2-2| x2
|444-444-4444-000-000-000-999-999-9999-0-0-0-2-2-2|
|444-444-4444-000-000-000-999-999-9999-0-0-0-2-2-2|
                                       . . . . . .

Lead Guitar
0:47
|----------------------|------------------------|
|777-77/9-101010-101010|101010-9-9-9------------|
|xxx-xx-x--x-x-x--x-x-x|-x-x-x-x-x-x------------|
|444-44/6--7-7-7--7-7-7|-7-7-7-6-6-4-0-0-0-2-2-2| x1
|----------------------|-------------0-0-0-2-2-2|
|----------------------|-------------0-0-0-2-2-2|
                                     . . . . . .

0:55
|----------------------|-------------------------|
|777-77/9-101010-101010|121212-1010-9------------|
|xxx-xx-x--x-x-x--x-x-x|-x-x-x--x-x-x------------|
|444-44/6--7-7-7--7-7-7|-9-9-9--7-7-6-0-0-0-2-2-2| x1
|----------------------|--------------0-0-0-2-2-2|
|----------------------|--------------0-0-0-2-2-2|
                                      . . . . . .


Break Down One


Rhythm Guitar
1:02
|------------------|------------------|------------------|---------------|
|------------------|------------------|------------------|---------------|
|------------------|------------------|------------------|---------------|
|------------------|------------------|------------------|---------------| x1
|-----4---4-4-4-5-5|-----4---4-4-4-5-5|-----4---4-4-4-5-5|-----4---------|
|4--4---4----------|4--4---4----------|4--4---4----------|4--4---4-4-----|

1:11                                                               .
|------------------|
|------------------|
|------------------|
|------------------| x4
|4----4---4-4-4-5-5|
|4--4---4-4-4-4----|

Lead Guitar
1:02
|------------------------------------------------------------------------|
|------------------------------------------------------------------------|
|------------------------------------------------------------------------|
|4-------------------------------------4-\\------------------------------| x1
|4---------------------------------0---4-\\------------------------------|
|4---------------------------------0-------------------------------------|
                                   .
1:11
|---------------|
|7-777-7-7-7-7-7|
|x-xxx-x-x-x-x-x|
|4-444-4-4-4-5-5| x4
|---------------|
|---------------|


Pre Chorus 


Rhythm Guitar
1:18
|------------------------------------------------------------------|
|------------------------------------------------------------------|
|------------------------------------------------------------------|
|44444444444444444444444444444444444444444444444444444444444444-7--| x1
|44444444444444444444444444444444444444444444444444444444444444----|
|44444444444444444444444444444444444444444444444444444444444444----|
 .............................................................. +

Lead Guitar
1:18
|----------------------------------------------------->
|77777777-99999999-1010101010101010-1212121212121212-->
|xxxxxxxx-xxxxxxxx--x-x-x-x-x-x-x-x--x-x-x-x-x-x-x-x-->
|44444444-66666666--7-7-7-7-7-7-7-7--9-9-9-9-9-9-9-9-->
|----------------------------------------------------->
|----------------------------------------------------->

1:22
|-----------------------------------------------------------|
|1414141414141414-1515151515151515-1717171717171717-1919---7|
|-x-x-x-x-x-x-x-x--x-x-x-x-x-x-x-x--x-x-x-x-x-x-x-x--x-x----|
|1111111111111111-1212121212121212-1414141414141414-1616----|
|-----------------------------------------------------------|
|-----------------------------------------------------------|
                                                           +

Chorus Two


Rhythm Guitar
1:26
|-------------------------------------------------|
|-------------------------------------------------|
|-------------------------------------------------|
|444-444-4444-000-000-000-999-999-9999-0-0-0-2-2-2| x4
|444-444-4444-000-000-000-999-999-9999-0-0-0-2-2-2|
|444-444-4444-000-000-000-999-999-9999-0-0-0-2-2-2|
                                       . . . . . .

Lead Guitar
1:26
|----------------------|-------------------------->
|777-77/9-101010-101010|101010-9-9-9-------------->
|xxx-xx-x--x-x-x--x-x-x|-x-x-x-x-x-x-------------->
|444-44/6--7-7-7--7-7-7|-7-7-7-6-6-4-0-0-0-2-2-2-->
|----------------------|-------------0-0-0-2-2-2-->
|----------------------|-------------0-0-0-2-2-2-->
                                     . . . . . .

|----------------------|-------------------------|
|777-77/9-101010-101010|121212-1010-9------------|
|xxx-xx-x--x-x-x--x-x-x|-x-x-x--x-x-x------------|
|444-44/6--7-7-7--7-7-7|-9-9-9--7-7-6-0-0-0-2-2-2| x2
|----------------------|--------------0-0-0-2-2-2|
|----------------------|--------------0-0-0-2-2-2|
                                      . . . . . .


Break Down Two


Rhythm Guitar
1:58
|------------------|------------------|------------------|---------------|
|------------------|------------------|------------------|---------------|
|------------------|------------------|------------------|---------------|
|------------------|------------------|------------------|---------------|
|-----4---4-4-4-5-5|-----4---4-4-4-5-5|-----4---4-4-4-5-5|-----4---------|
|4--4---4----------|4--4---4----------|4--4---4----------|4--4---4-4-----|
                                                                   .

Lead Guitar
1:58
|------------------------------------------------------------------------|
|------------------------------------------------------------------------|
|------------------------------------------------------------------------|
|4-------------------------------------4-\\------------------------------|
|4---------------------------------0---4-\\------------------------------|
|4---------------------------------0-------------------------------------|
                                   .
                                 
Bridge Section


Rhythm Guitar
2:06
|---------------|
|---------------|
|---------------|
|------------4--| x7
|--------------5|
|4-444-44-44----|
 . ... .. ..

|---------------|
|---------------|
|---------------|
|---------------| x1
|---------------|
|4-444-44-------|
 . ... ..

2:21
|------------------|
|------------------|
|------------------|
|------------------| x4
|4----4---4-4-4-5-5|
|4--4---4-4-4-4----|

Lead Guitar
2:06
|----------|
|----------|
|----------|
|----------| x7
|----------|
|5-4-\\-4-4|
        . .

|----------|
|----------|
|----------|
|----------| x1
|----------|
|5-4-\\----|

2:21
|---------------|
|7-777-7-7-7-7-7|
|x-xxx-x-x-x-x-x|
|4-444-4-4-4-5-5| x4
|---------------|
|---------------|


Pre Chorus


Rhythm Guitar
2:29
|----------------------------------------------------------------|
|----------------------------------------------------------------|
|----------------------------------------------------------------|
|44444444444444444444444444444444444444444444444444444444444444--| x1
|44444444444444444444444444444444444444444444444444444444444444--|
|44444444444444444444444444444444444444444444444444444444444444--|
 .............................................................. 

Lead Guitar
2:29
|----------------------------------------------------->
|77777777-99999999-1010101010101010-1212121212121212-->
|xxxxxxxx-xxxxxxxx--x-x-x-x-x-x-x-x--x-x-x-x-x-x-x-x-->
|44444444-66666666--7-7-7-7-7-7-7-7--9-9-9-9-9-9-9-9-->
|----------------------------------------------------->
|----------------------------------------------------->

2:33
|---------------------------------------------------------|
|1414141414141414-1515151515151515-1717171717171717-1919--|
|-x-x-x-x-x-x-x-x--x-x-x-x-x-x-x-x--x-x-x-x-x-x-x-x--x-x--|
|1111111111111111-1212121212121212-1414141414141414-1616--|
|---------------------------------------------------------|
|---------------------------------------------------------|
  
                                                         
Chorus Three


Rhythm Guitar
2:37
|-------------------------------------------------|
|-------------------------------------------------|
|-------------------------------------------------|
|444-444-4444-000-000-000-999-999-9999-0-0-0-2-2-2| x2
|444-444-4444-000-000-000-999-999-9999-0-0-0-2-2-2|
|444-444-4444-000-000-000-999-999-9999-0-0-0-2-2-2|
                                       . . . . . .

Lead Guitar
2:37
|----------------------|------------------------|
|777-77/9-101010-101010|101010-9-9-9------------|
|xxx-xx-x--x-x-x--x-x-x|-x-x-x-x-x-x------------|
|444-44/6--7-7-7--7-7-7|-7-7-7-6-6-4-0-0-0-2-2-2| x1
|----------------------|-------------0-0-0-2-2-2|
|----------------------|-------------0-0-0-2-2-2|
                                     . . . . . .

2:45
|----------------------|-------------------------|
|777-77/9-101010-101010|121212-1010-9------------|
|xxx-xx-x--x-x-x--x-x-x|-x-x-x--x-x-x------------|
|444-44/6--7-7-7--7-7-7|-9-9-9--7-7-6-0-0-0-2-2-2| x1
|----------------------|--------------0-0-0-2-2-2|
|----------------------|--------------0-0-0-2-2-2|
                                      . . . . . .


Outro


Rhythm Guitar
2:53
|-----|
|-----|
|-----|
|4R---| x1
|4R---|
|4R---|

|-------------------------------------------|
|-------------------------------------------|
|-------------------------------------------|
|----------------------77-77-7777-66-66-6666| x2
|44-44-4444-77-77-7777-55-55-5555-44-44-4444|
|44-44-4444-77-77-7777----------------------|

End On

|-----|
|-----|
|-----|
|4R---| x1
|4R---|
|4R---|


Lead Guitar
2:53
|---------|
|7--2/5v-5|
|x--------|
|4--------| x1
|---------|
|---------|

     tt tt ttt tttt     tt tt ttt ttt                         
|7/9-99-99-777-7544|7/9-99-99-777-754|4-2--------|
|------------------|-----------------|-----2/5v-5|
|------------------|-----------------|-----------|
|------------------|-----------------|-----------| x2
|------------------|-----------------|-----------|
|------------------|-----------------|-----------|

     tt tt ttt tttt     tt tt ttt ttt
|7/9-99-99-777-7544|7/9-99-99-777-754|4-2R-------|
|------------------|-----------------|-----------|
|------------------|-----------------|-----------|
|------------------|-----------------|-----------| x1
|------------------|-----------------|-----------|
|------------------|-----------------|-----------|





Comments


Popular Fei Comodo tabs & chords
Emo Rangers Bass Tabs
Emo Rangers Chords
Break The Ice Tabs
Break The Ice 1 Tabs
Break The Ice 2 Tabs
Burn It All Tabs
Burn It All 1 Tabs
Burn It All Intro Tabs
Emo Rangers Tabs
The Cost Of Living Tabs


Song lyrics



↑ Back to top | Tablatures and chords are parodies/interpretations of the original songs. You may use it for private study, scholarship, research or language learning purposes only
© 2014 AZChords.com Contact us | Privacy policy | DMCA | Add/correct tabs | Request tabs | Top 50 tabs