>
 >
The Air Is Cold Tonight

The Air Is Cold Tonight Guitar Tabs

Fei Comodo - The Air Is Cold Tonight chords, tabs, tablatures, lyrics

Guitar lessons | Add/correct | Request | Top 50 tabs Artists:  A B C D E F G H I J K L M N O P Q R S T U V W X Y Z 0-9

The Air Is Cold Tonight Guitar Tabs – Fei Comodo

CD, Sheet music, Poster

Do you like The Air Is Cold Tonight? Share with your friends now
Tabs
The Air Is Cold Tonight  Fei Comodo (Drop D Tuning)
Slide up = /,
Slide down = \,
 Pinched harmonics = *
Bend up = BU
Bend down = BD

Verse part 1 Guitar 1
D5-5-555-5555-5-5-5-----6-6-666-6666-6-6-6----------------|
A3-3-333-3333-3-3-3-----6-6-666-6666-6-6-6----------------|
D5-5-555-5555-5-5-5-----6-6-666-6666-6-6-6----------------|
G----------------------------------------------------------|
B----------------------------------------------------------|
e ---------------------------------------------------------|

Verse part 1 Guitar 2
D----------------------------------------------------------|
A----------------------------------------------------------|
D----------------------------------------------------------|
G555558/10\8-7---55555-8-7 *10-----------------------|
B--8686-------------86---------------------------------|
e----------------------------------------------------------|







Verse part 2:
D-----------------------------------------------|
A33-3---------------------33-333-------------|
D-----------------------------------------------|
G---5--3-(0)-8-7-(0)-5-7-----537--5-----------|
B-----------------------------------------------|
e-----------------------------------------------|

Verse part 3:
D1010---1010----------1010---1010-------|
A------------------------------------------|
D------10---8-------8-10-----10--8---------|
G--------------8-7-------------------8-7---|
B------------------------------------------|
e------------------------------------------|

Pre-chorus:
D------------------|
A------------------|
D-6----------------|
G---5--------------|
B-------3-4--------|
e------------------|

Chorus: ( these are the chords used in the order.)
D6------------------3-------------|
A6--------3---------3-------3-----|
D6 -------5---------3-------5-----|{X2
G-8--------5---------5-------5-----|
B----------4-----------------4-----|
e----------------------------------|

But ends with:
D--------------------5*-------5*----|
A3-3-333-3-3----6-5---33-6-5------|
D5-5-555-5-653-------55----------|
G5-5-555-5------------55----------|
B-----------------------------------|
e-----------------------------------|

Bridge:
D1010-13-12-10---10-8-10-1010-13-1212-13-10--|
A---------------10----------------------------|
D---------------------------------------------|
G---------------------------------------------|
e---------------------------------------------|

Outro: (chord order) work out timings for yourself*
D6-----------6---5---3---6-----|
A-6---3---4---6---6---3---6---4-|
D-6---5---6---6---5---3---6---6-|
G-8---5---6---8---8---5---8---6-|
B-------------------------------|
e-------------------------------|


ORDER OF THE SONG:
Verse part 1 guitar 1      X2
Verse part 1 guitar 2      X4
Verse part 2               X2
Verse part 3               X2
Pre-Chorus                 X1
Chorus                     X1
Verse part 1 guitar 2      X1 (cuts off last part)
Verse part 1 guitar 1      X2
Verse part 1 guitar 2      X4
Bridge                     X5
Pre-Chorus                 X1
Chorus                     X1
Quite Outro                X1
Loud Outro                 X4 (fades out)





Comments


Popular Fei Comodo tabs & chords
Emo Rangers Chords
Break The Ice Tabs
Break The Ice 1 Tabs
Break The Ice 2 Tabs
Burn It All Tabs
Burn It All 1 Tabs
Burn It All Intro Tabs
The Cost Of Living Tabs
Try No More Tabs
Emo Rangers Ukulele


Song lyrics



↑ Back to top | Tablatures and chords are parodies/interpretations of the original songs. You may use it for private study, scholarship, research or language learning purposes only
© 2014 AZChords.com Contact us | Privacy policy | DMCA | Add/correct tabs | Request tabs | Top 50 tabs