» » »

Fei Comodo, The Air Is Cold Tonight Tabs (ver.1)

Artists:  A B C D E F G H I J K L M N O P Q R S T U V W X Y Z # 

The Air Is Cold Tonight Tabs (ver.1)

Fei Comodo Tabs
 Rating:
4/5 (4 votes)
The Air Is Cold Tonight lessons Tabs too difficult? Try these video lessons and learn fast
                The Air Is Cold Tonight – Fei Comodo (Drop D Tuning)
Slide up = /,
Slide down = \,
 Pinched harmonics = *
Bend up = BU
Bend down = BD

Verse part 1 Guitar 1
D—5-5-555-5555-5-5-5-----6-6-666-6666-6-6-6----------------|
A—3-3-333-3333-3-3-3-----6-6-666-6666-6-6-6----------------|
D—5-5-555-5555-5-5-5-----6-6-666-6666-6-6-6----------------|
G----------------------------------------------------------|
B----------------------------------------------------------|
e ---------------------------------------------------------|

Verse part 1 Guitar 2
D—----------------------------------------------------------|
A—----------------------------------------------------------|
D—----------------------------------------------------------|
G—55—5—5—5—8/10\8-7---55—5—55-8-7 *10-----------------------|
B—--8—6—8—6-------------8—6---------------------------------|
e—----------------------------------------------------------|







Verse part 2:
D-----------------------------------------------|
A—33-3---------------------33-3—3—3-------------|
D-----------------------------------------------|
G---5--3-(0)-8-7-(0)-5-7-----5—3—7--5-----------|
B-----------------------------------------------|
e-----------------------------------------------|

Verse part 3:
D—1010---10—10----------1010---10—10-------|
A------------------------------------------|
D------10---8-------8-10-----10--8---------|
G--------------8-7-------------------8-7---|
B------------------------------------------|
e------------------------------------------|

Pre-chorus:
D------------------|
A------------------|
D-6----------------|
G---5--------------|
B-------3-4--------|
e------------------|

Chorus: ( these are the chords used in the order.)
D—6------------------3-------------|
A—6--------3---------3-------3-----|
D—6 -------5---------3-------5-----|{X2
G-8--------5---------5-------5-----|
B----------4-----------------4-----|
e----------------------------------|

But ends with:
D--------------------5*-------5*----|
A—3-3-33—3-3-3----6-5---33-6-5------|
D—5-5-55—5-5—-653-------55----------|
G—5-5-55—5-5------------55----------|
B-----------------------------------|
e-----------------------------------|

Bridge:
D—1010-13-12-10---10-8-10-1010-13-1212-13-10--|
A---------------10----------------------------|
D---------------------------------------------|
G---------------------------------------------|
e---------------------------------------------|

Outro: (chord order) work out timings for yourself*
D—6-----------6---5---3---6-----|
A-6---3---4---6---6---3---6---4-|
D-6---5---6---6---5---3---6---6-|
G-8---5---6---8---8---5---8---6-|
B-------------------------------|
e-------------------------------|


ORDER OF THE SONG:
Verse part 1 guitar 1      X2
Verse part 1 guitar 2      X4
Verse part 2               X2
Verse part 3               X2
Pre-Chorus                 X1
Chorus                     X1
Verse part 1 guitar 2      X1 (cuts off last part)
Verse part 1 guitar 1      X2
Verse part 1 guitar 2      X4
Bridge                     X5
Pre-Chorus                 X1
Chorus                     X1
Quite Outro                X1
Loud Outro                 X4 (fades out)
            
Submit corrections

comments powered by Disqus
↑ Back to top | Fei Comodo Tabs for The Air Is Cold Tonight. Lyrics for acoustic guitar and electric guitar. Tablatures and chords are parodies/interpretations of the original songs. You may use it for private study, scholarship, research or language learning purposes only