>
 >
Take Me Away 1

Take Me Away 1 Guitar Tabs

Fefe Dobson - Take Me Away 1 chords, tabs, tablatures, lyrics

Guitar lessons | Add/correct | Request | Top 50 tabs Artists:  A B C D E F G H I J K L M N O P Q R S T U V W X Y Z 0-9

Take Me Away 1 Guitar Tabs – Fefe Dobson

CD, Sheet music, Poster

Do you like Take Me Away 1? Share with your friends now
TabsTabs v2

Tuning - Standard
-----

This is probably my all time favorite song by Fefe Doboson, and there aren't many 
tabs to this song, so I decided to try and tab it out myself. I'm sure it's 99.9% 
accurate. Enjoy!

Also, I think there is a second guitar in this song, but I can't really hear what 
it's playing except on certain parts, so this is only "Guitar 1"
---------

Intro (Main Riff)

e|-------------------------------------------------------------|
B|-------------------------------------------------------------|
G|-66666--------------------------66666------------------------|
D|-66666----------77777-----------66666----------77777---------| x2
A|-44444--6~-7-7--77777---6~-7-7--44444--6~-7-7--77777--6~-7-6-|
E|----------------55555--------------------------55555---------|
   *****          *****           *****          ***** 
    (it sounds palm muted to me)

Verse

e|-----------------------------------------------------------------|
B|-----------------------------------------------------------------|
G|-6-----------6-----------6--66666-----------6-----------6--66666-|
D|-6--6--7--6--6--6--7--6--6--66666--6--7--6--6--6--7--6--6--66666-|
A|-4--6--7--6--4--6--7--6--4--44444--6--7--6--4--6--7--6--4--44444-|
E|----4--5--4-----4--5--4------------4--5--4-----4--5--4-----------|
                              *****                          *****

Verse (continued)

e|--------------------------------------------------------------------------|
B|--------------------------------------------------------------------------|
G|---------9--66666----------9--66666----------9--66666---------------------|
D|-6--77--69--66666--6--77--69--66666--6--77--69--66666--6--77--x-x-x-x--79-|
A|-6--77--67--44444--6--77--67--44444--6--77--67--44444--6--77--x-x-x-x--79-|
E|-4--55--4----------4--55--4----------4--55--4----------4--55--x-x-x-x--57-|
              *****             *****             *****

Pre-Chorus

e|---------------------------------------------|
B|---------------------------------------------|
G|---------------------------------------------|
D|-7-7-7-7-7-7-7-7---6-6-6-6-6-6-6-6-----------|
A|-7-7-7-7-7-7-7-7---6-6-6-6-6-6-6-6-----------|
E|-5-5-5-5-5-5-5-5---4-4-4-4-4-4-4-4-----------|

Chorus

e|----------------------------------------------------------------------|
B|----------------------------------------------------------------------|
G|-6-6-6-6-6-------------------------6-6-6-6-6-6------------------------|
D|-4-4-4-4-4--6-6--7-7-7-7-7-7--6-6--6-6-6-6-6-6--6-6--7-7-7-7-7-7--6-6-| x2
A|-4-4-4-4-4--6-6--5-5-5-5-5-5--6-6--4-4-4-4-4-4--6-6--7-7-7-7-7-7--6-6-|
E|------------4-4--5-5-5-5-5-5--4-4---------------4-4--5-5-5-5-5-5--4-4-|

Main Riff x1

Verse

Pre-Chorus

Chorus

Bridge

e|-------------------------------------------------------|
B|-------------------------------------------------------|
G|-66666----------44444----------22222----------99999999-|
D|-66666----------44444----------22222----------99999999-|
A|-44444--6~-7-7--22222--6~-7-7--00000--6~-7-7--77777777-|
E|-------------------------------------------------------|
   *****          *****          *****
 
Bridge (continued)

e|-----------------------------------------------|
B|-----------------------------------------------|
G|-66666----------44444---------22222222---------|
D|-66666----------44444---------2222222266666666-|
A|-44444--6~-7-7--22222--6~7-7--0000000066666666-|
E|--------------------------------------44444444-|
   *****          *****   

Pre-Chorus x2

(the silent part)

Chorus

------

The 0.1% I'm not sure about is all the palm muting, but when I play with the song 
it sounds like they do it too, so here it is :D

better off emailing me :P) 





Comments


Popular Fefe Dobson tabs & chords
Be Strong Chords
Everything 1 Chords
8x10 Tabs
Take Me Away Tabs
Be Strong Ukulele
Cant Breath Ukulele
Dont Let It Go To Your Head Ukulele
Everything Ukulele
I Want You Ukulele
This Is My Life Ukulele


Song lyrics



↑ Back to top | Tablatures and chords are parodies/interpretations of the original songs. You may use it for private study, scholarship, research or language learning purposes only
© 2014 AZChords.com Contact us | Privacy policy | DMCA | Add/correct tabs | Request tabs | Top 50 tabs