» » »

Feeling Left Out, Amanda's Poem About Unicorns Tabs (ver.1)

Artists:  A B C D E F G H I J K L M N O P Q R S T U V W X Y Z # 

Amanda's Poem About Unicorns Tabs (ver.1)

Feeling Left Out Tabs
 Rating:
4/5 (4 votes)
Amanda's Poem About Unicorns lessons Tabs too difficult? Try these video lessons and learn fast
                Tuning: eBGDAE
I remember I saved this tab a year ago I think, and well I realized there was almost no 
tabs in here and I couldn’t find Amanda’s poem anywhere! since the site I firstly found 
got owned or sth :]
AWANTE RATA EUFORIKA!


Intro/verse (2x)

"Imagining you being asleep..."
|---0---0---0---x-x--x-|
|---7---5---4---4/7--7-|
|---8---6---5---2/5--5-|
|---6---6---4---4/7--6-|
|---7---4---3----------|
|---0---x---x----------|

After Intro

"Wake you from your sleep..."
|---0---0---0---0---0---0---0---0-|
|---7---9---5---4---0---0---0---0-|
|---8---8---6---4---9---6---8---9-|
|---6---6---6---4---9---7---9---9-|
|---7---7---4---2---7---4---6---7-|
|---0---0---x---x---x---x---x---x-|

2nd verse (Intro/verse 2x)
"I revel in your soothing touch..."

3rd verse (2x)

"Lend me your soul..."
|---0---0---0---x-x--x-----|
|---9---7---4---4/7--7-----|
|---8---8---5---2/5--5-----|
|---6---7---6---4/7--6-----|
|--------------------------|
|--------------------------|

Bridge

"My fingers touch the back of your neck..."
|---x---x---x---x---|
|---5---9---5---4---|
|---4---8---6---4---|
|---6---10--6---4---|
|---7---11--4---2---|
|---0---0---x---x---|

"Even moonlight..."
|---x---x---x---x-----|
|---5---4---5---2-----|
|---4---4---6---2-----|
|---6---4---6---2-----|
|---7---2---4---0-----|
|---0---0---x---------|

repeat 3rd verse (2x)
"The snap of your laughter..."

picking part (2x)

"To hell with heaven..."

|---------0-------0-------0--|---------0-------0----------|
|-------9-------9-------9----|-------7-------7-------7----|
|-----8-------8-------8------|-----8-------8-------8------|
|---6-------6-------6--------|---7-------7-------7--------|
|----------------------------|----------------------------|
|----------------------------|----------------------------|


|--------0---------0-------------0----|---------0-------0-x--|
|-----------4---------4-------4-------|-------4-------7---7--|
|------5---------5----------5---------|-----2-------5-----5--|
|---6---------6----------6------------|---4-------7-------6--|
|-------------------------------------|----------------------|
|-------------------------------------|----------------------|
            
Submit corrections

comments powered by Disqus
↑ Back to top | Feeling Left Out Tabs for Amanda's Poem About Unicorns. Lyrics for acoustic guitar and electric guitar. Tablatures and chords are parodies/interpretations of the original songs. You may use it for private study, scholarship, research or language learning purposes only