» » »

Feeling, Rose Tabs (ver.1)

Artists:  A B C D E F G H I J K L M N O P Q R S T U V W X Y Z # 

Rose Tabs (ver.1)

Feeling Tabs
 Rating:
4/5 (11 votes)
Rose lessons Tabs too difficult? Try these video lessons and learn fast
                this is a great song its been done by ear so it mmight no be completely accurate....

Verse:

e------------2-----------2-------------------0------------|
b-------------2-----------2--------2--------2-2-----------|
g----------2---2-------2---2------2-2------1---1----------|
d--------4---------0-4----------2----2--------------------|
a-----------------------------4----------4----------------|
e------2--------------------------------------------------|

e------------2-----------2--------------------0-----------|
b-------------2-----------2--------2-----0-----0----------|
g----------2---2-------2---2------2-2------1----1---------|
d--------4---------0-4----------2----2------2-------------|
a-----------------------------4----------2----------------|
e------2--------------------------------------------------|

e------------2-----------2--------------------4-----------|
b-------------2-----------2--------2--------2-5-2---------|
g----------2---2-------2---2------2-2------1-----1--------|
d--------4---------0-4----------2----2--------------------|
a-----------------------------4----------4----------------|
e------2--------------------------------------------------|

e------------2-----------2----------------0---------------|
b-------------2-----------2--------2-------0--0-----------|
g----------2---2-------2---2------2-2-------1--1----------|
d--------4---------0-4----------2----2----------2---------|
a-----------------------------4---------------------------|
e------2--------------------------------------------------|

Verse 1 words:

You and your friends in boxes of ten
Cool to the touch you warm me so much
The white to your left and the red to your right were all that I’d seen
Till I realised that the love that I seek lies right in between

Verse 2 words:

Veins
Relieves me from pain again and again
I lose all control
You’re taking your toll
I’m no longer sane
But don’t be afraid ‘cos the love that I show is the love that you made
So don’t be afraid cos you’re in control I’m just your slave


Chorus:

e------------------------------------------------------------------------|
b------------------------------------------------------------------------|
g------------2--------------------2--2--2--2--1-1------------------------|
d---4-4-4---2----4--4--4--4---2--2--2--2---2-2---1-----1-----------------|
a---5-5-5---4----5--5--5--5---4--4--4--4---2-2---2-----2-----------------|
e---7-7-7---------5--5-5--5-----------------------------2----------------|

e------------------------------------------------------------------------|
b--------------------------------------3---------------------------------|
g-------------2---------------------1------------------------------------|
d---4--4--4-2---------4----0--1------------------------------------------|
a---5--5--5-4------------0-----------------------------------------------|
e---7--7--7--------------------------------------------------------------|

1st time:

Play the chords:

A  F#m D Bm A

And then….

e-------------------------------|
b-------------------------------|
g 2 ----1------1----------------|
d --2-----2 -------2------------|
a ----4-----2-----2-------------|
e-------------------------------|


Verse 2:

This is the same as verse 1.

Chorus:

The same again but don’t play the first time bit, play this:

A  F#m  D  Bm  A

Bridgey bit:
this isnt completely acurate
I’m not as happy with this as I would like to be but here we go…

e----------------------------------------------------------|
b------0-3-0----------0-2-0------3-2-3-------3--3-3-3------|
g-----------------------------------------2-----2-2-2------|
d--0-4-------4---0-4-------4-4-2------2--4------4-4-4------|
a--2-------------2-----------5-----------5------5-5-5------|
e--2-------------2-----------5-----------5-----------------|

e-------------------------0-3-0----------0-3---------------|
b------2--------2--------0------0------0-------------------|
g-----2-2------2-2----0--------------0---------------------|
d----2---2----2---2---1--------------1---------------------|
a--4-------4-----------------------------------------------|
e--5-------5-----------------------------------------------|

Pre chorus bit:

e-2------5------2--------0-------0---------|
b-3-(x9)-5-(x3)-3-(x12)--2-(x12)-0-(x10)---|
g-4------6------2--------2-------1---------|
d------------------------------------------|
a------------------------------------------|
e------------------------------------------|

e--2-------5------2-------0-------0-----------|
b--3-(x9)--5-(x3)-3-(x12)-2-(x12)-0-(x6)------|
g--4-------6------2-------2-------1-----------|
d---------------------------------------------|
a---------------------------------------------|
e---------------------------------------------|

Final chorus:

e-----------|
b-----------|
g----2---2--|
d--4-2-4-2--|
a--5-4-5-4--|
e--7---5----|

and then the chords:

A  F#m D Bm A


thats my tab please rate i hope you like it....
            
Submit corrections

comments powered by Disqus
↑ Back to top | Feeling Tabs for Rose. Lyrics for acoustic guitar and electric guitar. Tablatures and chords are parodies/interpretations of the original songs. You may use it for private study, scholarship, research or language learning purposes only