» » »

Never Be Lonely Tabs (ver.2)

Artists:  A B C D E F G H I J K L M N O P Q R S T U V W X Y Z # 

Never Be Lonely Tabs (ver.2)

Feeling
Rating:
4/5 (1 vote)

Tabs too difficult? Try these video lessons and learn fast.
                The Feeling - Never Be Lonely solo


e ---------------------------------------------------------------------------|
B --8---------------------------8--------------------------------8-10--13-13-|
G --7b9b7-5-5-----5-----5-------7b9b7-5-5------------------5-7/9-------------|
D ------------7-5---7-5---7-5-------------7-5----5-5-7-5-7-------------------|
A ---------------------------------------------7-----------------------------|
E ---------------------------------------------------------------------------|


e --------------------------------------------------------------------------|
B -12---------------6-5----------13-13-13-11-11-11-10-10-10-8-8-8-6-6\5/6---|
G ----14-12\9/12--------7-5-------------------------------------------------|
D --------------------------/7-5--------------------------------------------|
A --------------------------------------------------------------------------|
E --------------------------------------------------------------------------|
            
Tabs too difficult? Try these video lessons and learn fast.




comments powered by Disqus
↑ Back to top | Tablatures and chords are parodies/interpretations of the original songs. You may use it for private study, scholarship, research or language learning purposes only