>
 >
I Love It When You Call

I Love It When You Call Guitar Tabs

Feeling - I Love It When You Call chords, tabs, tablatures, lyrics

Guitar lessons | Add/correct | Request | Top 50 tabs Artists:  A B C D E F G H I J K L M N O P Q R S T U V W X Y Z 0-9

I Love It When You Call Guitar Tabs – Feeling

CD, Sheet music, Poster

Do you like I Love It When You Call? Share with your friends now
ChordsTabsUkulele
THIS IS THE INTRO AND VERSE


Intro
--------------------------------------------
--------------------------------------------
--5-5---------------------------------------
--5-5--5-5--2-2--3-3----5-5--7-7--2-2--3-3--
--3-3--5-5--2-2--3-3----5-5--7-7--2-2--3-3--
-------3-3--0-0--1-1----3-3--5-5--0-0--1-1--



Verse is the same.
--------------------------------------------
--------------------------------------------
--5-5---------------------------------------
--5-5--5-5--2-2--3-3----5-5--7-7--2-2--3-3--
--3-3--5-5--2-2--3-3----5-5--7-7--2-2--3-3--
-------3-3--0-0--1-1----3-3--5-5--0-0--1-1--


=)





Comments


Popular Feeling tabs & chords
Love It When You Call Chords
Never Be Lonely Chords
Sewn 2 Chords
Turn It Up Chords
Fill My Little World 3 Tabs
Love It When You Call Tabs
A Hundred Sinners Come And Get It Ukulele
Never Be Lonely Ukulele
Say No Ukulele
This Time Ukulele


Song lyrics



↑ Back to top | Tablatures and chords are parodies/interpretations of the original songs. You may use it for private study, scholarship, research or language learning purposes only
© 2014 AZChords.com Contact us | Privacy policy | DMCA | Add/correct tabs | Request tabs | Top 50 tabs