» » »

Feeling, Fill My Little World Bass tabs (ver.2)

Artists:  A B C D E F G H I J K L M N O P Q R S T U V W X Y Z # 

Fill My Little World Bass tabs (ver.2)

Feeling Tabs
 Rating:
3/5 (8 votes)
Fill My Little World lessons Tabs too difficult? Try these video lessons and learn fast
                Straight out of bass guitar magazine so correct.

Intro/chorus

G ----------------------------------------------------------|
D ----------------------------------------------------------|
A -10-10----10--10-10--10-10---7-7----7-----5---5--5-5--5-5-|
E --------10------------------------7---7-7---7-------------|

G -------------------|
D -------------------|
A -3-3----5-7-7-9-9--|
E ------3------------|

Verse (01:13)

G -----------------  G ---------------  G -----------------|
D ----5--4--2------  D ----4--2-------  D ----3--2---------|
A --5---------5----  A --5------5--2--  A --2------5--0----|
E -----------------  E ---------------  E -----------------|

G ------------------|
D ----2-------------|
A --0---5--3--7---9-|
E ------------------|

Bridge (01:46)

G -----------------------------------------------------------|
D ------------12------------12------------12---14----10------|
A ----10------------9-------------8-----------------------10-|
E -----------------------------------------------------------|

G ------------------|
D ------------------|
A ---------------2--|
E ---3--------------|

G ---------------------------------------------------------|
D -----------------------5---------------------------------|
A ------5-------3----------5---------2----------5--5--5--5-|
E -----------------------------3---------------------------|

G -------------------------|
D -------------------------|
A --3--3--5--5--7--7--9--9-|
E -3-----------------------|

I'm not if i've done this right so sorry if it is rubbish.
            
Submit corrections

comments powered by Disqus
↑ Back to top | Feeling Bass for Fill My Little World. Lyrics for acoustic guitar and electric guitar. Tablatures and chords are parodies/interpretations of the original songs. You may use it for private study, scholarship, research or language learning purposes only