>
 >
Only Life

Only Life Guitar Tabs

Feelies - Only Life chords, tabs, tablatures, lyrics

Guitar lessons | Add/correct | Request | Top 50 tabs Artists:  A B C D E F G H I J K L M N O P Q R S T U V W X Y Z 0-9

Only Life Guitar Tabs – Feelies

CD, Sheet music, Poster

Do you like Only Life? Share with your friends now
Tabs
-------------------------------------------------------------------------------
                             Only Life - The Feelies
-------------------------------------------------------------------------------

Tuning: Both Guitars - E A D G C e

It's also very possible to play this song in 
standard tuning, but by raising the B string 
up a whole step, it makes a very easy song even easier. 

If you're unsure of which note "C" is, match
the open "B" string to the fifth fret note of the "G" string.


| ~ let ring
| + harmonic
| \ slide down
| / slide up

  Intro:
  Guitar 1: Lead 
 e|-0~-------------3~----0~-----------------------+12+---------+12+|
 C|------------------------------+12+------+12+--------+12+--------|
 G|----------------------------------------------------------------|
 D|----------------------------------------------------------------|
 A|----------------------------------------------------------------|
 E|----------------------------------------------------------------|

  Guitar 2: Rhythm
 e|-0--------------0---------------------0----------0-----0--------|
 C|----0~----0~-------0~----0~--------0~----0~---------0~----0-----|
 G|-------0--------------0---------0----------------------0--------|
 D|----------------------------------------------------------------|
 A|----------------------------------------------------------------|
 E|----------------------------------------------------------------|


  Guitar 1: Lead
 e|------------------------------------------------|
 C|+12+--------------+12+------------------+12+----|
 G|-----------------------+12+---------------+12+--|
 D|------------------------------------------------|
 A|------------------------------------------------|
 E|------------------------------------------------|

  Guitar 2: Rhythm
 e|------------------------------------------------|
 C|----0----------0-----------0----------0---------|
 G|-0----------0-----------0----------0------------|
 D|------------------------------------------------|
 A|------------------------------------------------|
 E|------------------------------------------------|


 Verse:

 Guitar 2: Rhythm
 Unfortunately, guitar 2 plays this straight
 through for the rest of the song, while 
 guitar 1 does all of the fun stuff.
    
    d u   d  u d u
 e|-0-0---0--0-0-0------|
 C|-0-0---0--0-0-0------|
 G|-2-2---0--0-0-0------| Play for entire song.
 D|-3-3---2--2-2-2------|
 A|-0-0---3--3-3-3------|
 E|-x-x---x--x-x-x------|
 


  Guitar 1: Lead
 e|-12-------------------|
 C|---12---12~-----------|
 G|----------------------| Repeat throughout verse
 D|----------------------|
 A|----------------------|
 E|----------------------|

  Guitar Solo:
  Guitar 1: Lead
 
 e|--------------------12--15-12~----13--12---13-12-10------|
 C|-12~~~~~12-14-12-14----------------------------------12~~|
 G|---------------------------------------------------------|
 D|---------------------------------------------------------|
 A|---------------------------------------------------------|
 E|---------------------------------------------------------|

 Guitar 1: Lead cont'd

 e|--------------------------------------------------------------------|
 C|---------------------------------------------------16(X5)-16-17-16--|
 G|-14--12-------------------------------14-17-----19------------------|
 D|----------15---14b~~---14-15-17-----17------------------------------|
 A|--------------------------------------------------------------------|
 E|--------------------------------------------------------------------|

  Guitar 1: Lead cont'd

 e|-15(X6)----------------------------------------|
 C|------16-16-16--16\12-12-12~\7--7~~~~~~~~~~~~~~|
 G|-----------------------------------------------|
 D|-----------------------------------------------|
 A|-----------------------------------------------|
 E|-----------------------------------------------|

  Last Verse:
  Guitar 1: Lead
 e|-12-------------------|
 C|---12---12~-----------|
 G|----------------------| Repeat throughout verse
 D|----------------------|
 A|----------------------|
 E|----------------------|

  When he's done singing, go back to playing harmonics
  until the song ends

  Guitar 1: Lead
 e|-+12+-----------|
 C|------+12+~~~---|
 G|----------------| 
 D|----------------|
 A|----------------|
 E|----------------|





Comments


Popular Feelies tabs & chords
Its Only Life Bass Tabs
Crazy Rhythms Chords
High Road Chords
Undertow Chords
High Road Tabs
Higher Ground Tabs
Undertow Tabs
Undertow 1 Tabs
Lets Go Ukulele
Undertow Ukulele


Song lyrics



↑ Back to top | Tablatures and chords are parodies/interpretations of the original songs. You may use it for private study, scholarship, research or language learning purposes only
© 2014 AZChords.com Contact us | Privacy policy | DMCA | Add/correct tabs | Request tabs | Top 50 tabs