» » »

Feelies, Moscow Nights Tabs (ver.1)

Artists:  A B C D E F G H I J K L M N O P Q R S T U V W X Y Z # 

Moscow Nights Tabs (ver.1)

Feelies Tabs
Rating:
0/5 (0 votes)
Hard to play? Try these video lessons and learn fast.
                The Feelies
Crazy Rhythms (1980)


Guitar 1
INTRO
e|---------------------------------------------------------------------------|
B|---------------------------------------------------------------------------|
G|----------6--5-------------------4-----7--6--7-----9--8--7-----9--8--7--5--|
D|-------6--------6\3--------4--3-----5-----------6-----------7--------------|
A|-4--7----------------3--2--------------------------------------------------|
E|---------------------------------------------------------------------------|

Guitar 2
   Am                                       Em
e|--0--0--0--0------|    e|--0--0--0--0------|
B|--1--1--1--1------|    B|--0--0--0--0------|
G|--2--2--2--2--(x4)|    G|--0--0--0--0--(x4)|
D|--2--2--2--2------|    D|--2--2--2--2------|
A|--0--0--0--0------|    A|--2--2--2--2------|
E|------------------|    E|--0--0--0--0------|

   Am                                       Em
e|--0--0--0--0------|    e|--0--0--0--0-----|
B|--1--1--1--1------|    B|--0--0--0--0-----|
G|--2--2--2--2--(x4)|    G|--0--0--0--0-(x4)|
D|--2--2--2--2------|    D|--2--2--2--2-----|
A|--0--0--0--0------|    A|--2--2--2--2-----|
E|------------------|    E|--0--0--0--0-----|
    Am
e|--0--0--0--0--0--0--0--0--0--0--0--0--0--0--0--0--|
B|--1--1--1--1--1--1--1--1--3--1--1--3--1--1--3--1--|
G|--2--2--2--2--2--2--2--2--2--2--2--2--2--2--2--2--|
D|--2--2--2--2--2--2--2--2--2--2--2--2--2--2--2--2--|
A|--0--0--0--0--0--0--0--0--0--0--0--0--0--0--0--0--|
E|--------------------------------------------------|
                                                     \
                                                      x2
e|--0--0--0--0----|                                  /
B|--0--0--0--0----|
G|--0--0--0--0----| x4
D|--2--2--2--2----|
A|--2--2--2--2----|
E|--0--0--0--0----|

  Guitar 1
e|-------------------------------------------------|
B|-------------------------------------------------|
G|-------------------------------------------------|
D|-12-14-14-14-14-14-14-14-12-14-14-14-14-14-14-14-|
A|-------------------------------------------------|
E|-------------------------------------------------|\
                                                     x2
e|-------------------------------------------------|/
B|-------------------------------------------------|
G|-------------------------------------------------|
D|-10-12-12-12-12-12-12-12-10-12-12-12-12-12-12-12-|
A|-------------------------------------------------|
E|-------------------------------------------------|

(While guitar 1 plays the above notes guitar 2 strums Am and G and lets ring)

Am  G  Am  G

(Guitar 2 continues Am and G but with a different strum pattern.  Listen to the track to 
get the timing down)

Am      G
Oh, Oh, Oh

Am      G
Oh, Oh, Oh

Am
All you really wanted

                           G
Was to be alone at least a little while

             Am
How was I to know that?

                        G
Well, it seemed like an eternity

         Am
When you smile and say,
                              G
"I thought about it, it's the right time"

         Am
And I expect that
                              G
You're never returning to the USA

Am  G  Am  G

Guitar 1
Each note in this sequence in played 14 times.  Listen to the track to get the timing down.
  PM--------------------------------------|
e|----------------------------------------|
B|----------------------------------------|
G|----------------------------------------|
D|-------------------------------------9--|
A|--12--10---------------------10--12-----|
E|----------12--10--8--10--12-------------|

SOLO
e|------------------------------------------|------------------------------------------|
B|------------------------------------------|------------------------------------------|
G|---------------------------------9--------|---------------------------------9--12--9-| (x2)
D|-9--10--12--12fbr-10--9--10--12-----------|-9--10--12--12fbr-10--9--10--12-----------|
A|------------------------------------------|------------------------------------------|
E|------------------------------------------|------------------------------------------|


e|------------------------------------------------------------------|
B|------------------------------------------------------------------|
G|--12-9-12-9-12-9-12-9-12-9-12------9------------------------------|
D|-------------------------------12------10--12--9--10--9/14--------|
A|------------------------------------------------------------------|
E|------------------------------------------------------------------|

e|------------------------------------------------------------------|
B|------------------------------------------------------------------|
G|-12-14-------12-14-------12-14-------12-14-14-14-14-12-14/16------|
D|-------12-14-------12-14-------12-14------------------------------|
A|------------------------------------------------------------------|
E|------------------------------------------------------------------|

e|---------------------|                e|---------------------|
B|---------------------|                B|---------------------|
G|-16--16--16--16--(x4)|                G|-17--17--17--17--(x4)|
D|---------------------|                D|---------------------|
A|---------------------|                A|---------------------|
E|---------------------|                E|---------------------|

e|---------------------|        e|---------------------|
B|---------------------|        B|-17--17--17--17------|
G|-19--19--19--19--(x4)|        G|-----------------(x4)|
D|---------------------|        D|---------------------|
A|---------------------|        A|---------------------|
E|---------------------|        E|---------------------|


e|---------------------------------|
B|-17-20-17-20-17-20-17-20-17-20---|
G|---------------------------------| (Played though the "oh, oh, oh" part of verse 2)
D|---------------------------------|
A|---------------------------------|
E|---------------------------------|


Am      G
Oh, Oh, Oh

Am      G
Oh, Oh, Oh

                Am
Oh, the way the lights are

                               G
I can see your face is getting clearer

                         Am
It's like you never even left here

                            G
It's like you never had the reason to want to go

      Am
Well, I don't know

                             G
I think it's time for you to face it

                        Am
You never felt right in our world

                     G
You never felt right about yourself

       Am
And I think about what it might be like

           G
If I could go alone, if I could go at night

      Am
Would it be just like you know you said it would

         G
Would it start the life aglow


OUTRO
e|------------------------------------------------------------------|
B|-17--17--17--17--17--17--17--17--17--17--17--17--17--17--17--17---|
G|-17--17--17--17--17--17--17--17--17--17--17--17--17--17--17--17---|
D|------------------------------------------------------------------|
A|------------------------------------------------------------------|
E|------------------------------------------------------------------|

e|------------------------------------------------------------------|
B|-15--15--15--15--15--15--15--15--15--15--15--15--15--15--15--15---|
G|-16--16--16--16--16--16--16--16--16--16--16--16--16--16--16--16---|
D|------------------------------------------------------------------|
A|------------------------------------------------------------------|
E|------------------------------------------------------------------|

e|------------------------------------------------------------------|
B|-13--13--13--13--13--13--13--13--15--13--13--15--13--13--15--13---|
G|-14--14--14--14--14--14--14--14--14--14--14--14--14--14--14--14---|
D|------------------------------------------------------------------|
A|------------------------------------------------------------------|
E|------------------------------------------------------------------|
e|------------------------------------------------------------------|
B|-12--12--12--12--12--12--12--12--15--12--12--15--12--12--15--12---|
G|-12--12--12--12--12--12--12--12--12--12--12--12--12--12--12--12---|
D|------------------------------------------------------------------|
A|------------------------------------------------------------------|
E|------------------------------------------------------------------|

e|------------------------------------------------------------------|
B|-10--10--10--10--10--10--10--10--12--10--10--12--10--10--12--10---|
G|--9---9---9---9---9---9---9---9---9---9---9---9---9---9---9---9---|
D|------------------------------------------------------------------|
A|------------------------------------------------------------------|
E|------------------------------------------------------------------|

e|------------------------------------------------------------------|
B|--8---8---8---8---8---8---8---8---8--10---8--10---8---8--10---8---|
G|--7---7---7---7---7---7---7---7---7---7---7---7---7---7---7---7---|
D|------------------------------------------------------------------|
A|------------------------------------------------------------------|
E|------------------------------------------------------------------|

e|------------------------------------------------------------------|
B|--5---5---5---5---5---5---5---5---8---5---5---8---5---5---8---5---|
G|--5---5---5---5---5---5---5---5---5---5---5---5---5---5---5---5---|
D|------------------------------------------------------------------|
A|------------------------------------------------------------------|
E|------------------------------------------------------------------|


e|------------------------------------------------------------------|
B|--8---8---8---8---8---8---8---8---8---8---8---8---8---8---8---8---|
G|--7---7---7---7---7---7---7---7---7---7---7---7---7---7---7---7---|
D|------------------------------------------------------------------|
A|------------------------------------------------------------------|
E|------------------------------------------------------------------|

    Am
e|--0-------------|
B|--1-------------|
G|--2--(let ring)-|
D|--2-------------|
A|--0-------------|
E|----------------|

I know this tab isn't perfect, but we all got to start somewhere right?  Feel free to 
            

comments powered by Disqus
↑ Back to top | Feelies Tabs for Moscow Nights. Lyrics for acoustic guitar and electric guitar. Tablatures and chords are parodies/interpretations of the original songs. You may use it for private study, scholarship, research or language learning purposes only