>
 >
Slave

Slave Guitar Tabs

Feelabout - Slave chords, tabs, tablatures, lyrics

Guitar lessons | Add/correct | Request | Top 50 tabs Artists:  A B C D E F G H I J K L M N O P Q R S T U V W X Y Z 0-9

Slave Guitar Tabs – Feelabout

CD, Sheet music, Poster

Do you like Slave? Share with your friends now
Tabs
-------------------------------------------------------------------------------
-------------------------------------------------------------------------------


Tuning: standard E

Opening
e|-----------------------------------------------------------|
B|-----------------------------------------------------------|
G|-----------------------------------------------------------|
D|-----------------------------------------------------------|
A|-222320333333---222320333333---222320333333---2223203------|
E|-222320111111---222320111111---222320111111---2223201------|
   ************   ************   ************   *******

Fill 1
e|------------------------|
B|------------------------|
G|---5-----------0-0------| X4
D|--5-5-7-765-3-2-2-------|
A|------------------------|
E|------------------------|
    *** * *** * ****

Fill 2
e|--------------------------------------------------------------------|
B|--------------------------------------------------------------------|
G|--------------------------------------------------------------------|
D|--------------------------------------------------------------------|
A|--000-543-000-543-000-543-543-543--000-543-000-543-000-543-543-543--|
E|--------------------------------------------------------------------|

Verse
e|----------------------------------------------------|
B|----------------------------------------------------|
G|----------------------------------------------------|
D|----------------------------------------------------|
A|--777-777-777-77--777-777-777-77--777-777-777-77----|
E|--555-555-555-55--555-555-555-55--555-555-555-55----|
    *** *** *** **  *** *** *** **  *** *** *** **

Chorus
e|-----------------------------------------------------------|
B|-----------------------------------------------------------|
G|-----------------------------------------------------------|
D|-----------------------------------------------------------|
A|-2223203-XXX---2223203-XXX---2223203-XXX---2223203-XXX-----|
E|-2223201-XXX---2223201-XXX---2223201-XXX---2223201-XXX-----|

Fill 2
e|---------------------------------|
B|---------------------------------|
G|---------------------------------|
D|---------------------------------|
A|--000-543-000-543-000-543-543-5--|
E|---------------------------------|

Verse
e|----------------------------------------------------|
B|----------------------------------------------------|
G|----------------------------------------------------|
D|----------------------------------------------------|
A|--777-777-777-77--777-777-777-77--777-777-777-77----|
E|--555-555-555-55--555-555-555-55--555-555-555-55----|
    *** *** *** **  *** *** *** **  *** *** *** **

Chorus
e|-----------------------------------------------------------|
B|-----------------------------------------------------------|
G|-----------------------------------------------------------|
D|-----------------------------------------------------------|
A|-2223203-XXX---2223203-XXX---2223203-XXX---2223203-XXX-----|
E|-2223201-XXX---2223201-XXX---2223201-XXX---2223201-XXX-----|

Fill 1
e|------------------------|
B|------------------------|
G|---5-----------0-0------| X4
D|--5-5-7-765-3-2-2-------|
A|------------------------|
E|------------------------|
    *** * *** * ****

Chorus
e|-----------------------------------------------------------|
B|-----------------------------------------------------------|
G|-----------------------------------------------------------|
D|-----------------------------------------------------------|
A|-2223203-XXX---2223203-XXX---2223203-XXX---2223203-XXX-----|
E|-2223201-XXX---2223201-XXX---2223201-XXX---2223201-XXX-----|

Bridge   
e|-----------------------------|
B|-----------------------------|
G|-----------------------------| X3
D|-----------------------------|
A|-22------22------22-----2----|
E|-22-530--22-530--22-530-2----|
   **      **      **     

Fill 3 (Fast Ramonsing)
e|-------------------------------|     |----|
B|-------------------------------|     |----|
G|--11--11--11--11--11--11--12---| X7  |-11-|
D|-------------------------------|     |----|
A|--9---9---9---9---9---9---10---|     |-9--|
E|-------------------------------|     |----|

Outro
e|--------------------------------------------------------------|
B|--------------------------------------------------------------|
G|--------------------------------------------------------------|
D|--222-765-222-765-222-765-765-765--222-765-222-765-222-765----|
A|--000-543-000-543-000-543-543-543--000-543-000-543-000-543-7--|
E|-----------------------------------------------------------5--|


************************************

| /   slide up
| \   slide down
| h   hammer-on
| p   pull-off
| ~   vibrato
| +   harmonic
| x   Mute note
| b   Bend
| pb  Pre-bend
| br  Bend release
| pbr Pre-bend release
| brb Bend release bend

************************************





Comments


Popular Feelabout tabs & chords
Colors And Shapes Tabs
Jail Back Tabs
Sing Tabs
Small Mind Tabs


Song lyrics



↑ Back to top | Tablatures and chords are parodies/interpretations of the original songs. You may use it for private study, scholarship, research or language learning purposes only
© 2014 AZChords.com Contact us | Privacy policy | DMCA | Add/correct tabs | Request tabs | Top 50 tabs