» » »

Feelabout, Sing Tabs (ver.1)

Artists:  A B C D E F G H I J K L M N O P Q R S T U V W X Y Z # 

Sing Tabs (ver.1)

Feelabout Tabs
 Rating:
4/5 (4 votes)
Sing lessons Tabs too difficult? Try these video lessons and learn fast
                -------------------------------------------------------------------------------
-------------------------------------------------------------------------------


Tuning: standard E

Opening
e|-----------------------------------------------------------|
B|-----------------------------------------------------------|
G|-----------------------------------------------------------| X2
D|-----------------------------------------------------------|
A|-----------------------------------------------------------|
E|-0-3-4-0--0-3-4-0-0-3-4--0-3-4-0--0-3-4-0-0-3-4------------|
   
Verse
e|-----------------------------------------------------------|
B|-----------------------------------------------------------|
G|-----------------------------------------------------------|
D|-2-----2--2-----2--2------2-----2--2-----2--2--------------| X3
A|-2-----2--2-----2--2------2-----2--2-----2--2--------------|
E|-0-3-4-0--0-3-4-0--0-3-4--0-3-4-0--0-3-4-0--0-3-4----------|
   * * * *  * * * *  * * *  * * * *  * * * *  * * *

e|--------------------------------------------------|
B|--------------------------------------------------|
G|--------------------------------------------------|
D|-2-----2--2-----2--2------2-----2--2---2----------| X3
A|-2-----2--2-----2--2------2-----2--2---2----------|
E|-0-3-4-0--0-3-4-0--0-3-4--0-3-4-0--0-4-0-33-------|
   * * * *  * * * *  * * *  * * * *  * * * **

Fill 1
e|------------------------|
B|------------------------|
G|------------------------| X4
D|-555--777----XXX--------|
A|-555--777----XXX--------|
E|-333--555----XXX--------|
  
Verse 2
e|-----------------------------------------------------------|
B|-----------------------------------------------------------|
G|-----------------------------------------------------------|
D|-2-----2--2-----2--2------2-----2--2-----2--2--------------| X3
A|-2-----2--2-----2--2------2-----2--2-----2--2--------------|
E|-0-3-4-0--0-3-4-0--0-3-4--0-3-4-0--0-3-4-0--0-3-4----------|
   * * * *  * * * *  * * *  * * * *  * * * *  * * *

e|--------------------------------------------------|
B|--------------------------------------------------|
G|--------------------------------------------------|
D|-2-----2--2-----2--2------2-----2--2---2- --------| X3
A|-2-----2--2-----2--2------2-----2--2---2----------|
E|-0-3-4-0--0-3-4-0--0-3-4--0-3-4-0--0-4-0-33-------|
   * * * *  * * * *  * * *  * * * *  * * * **

Fill 2
e|------------------------|
B|------------------------|
G|------------------------| X4
D|-555--777----XXX--------|
A|-555--777----XXX--------|
E|-333--555----XXX--------|
 
Chorus 1
e|-----------------------------------------------------|
B|-----------------------------------------------------|
G|-5/7/9--2---5/7/9-/12--2/7---12-12/14/16---2-22-222--|
D|-------------------------------------------2-22-222--|
A|-3/5/7--4---3/5/7-/10--4/5---10-10/12/14---0-00-000--|
E|-----------------------------------------------------|

Fill 3
e|------------------------------------------|
B|------------------------------------------|
G|------------------------------------------| 
D|------------------------------------------|
A|------------------------------------------|
E|-0-3-4-0--0-3-4-0-0-3-4--0-3-4-0--0-3-4---|

Verse 3
e|-------------------------------|
B|-------------------------------|
G|-------------------------------|
D|-2-------2-------2-------2-----| 
A|-2-----5-2-----5-2-----5-2-----|
E|-0-333---0-333---0-333---0-----|
   * ***   * ***   * ***   

Chorus 2
e|-----------------------------------------------------|
B|-----------------------------------------------------|
G|-5/7/9--2---5/7/9-/12--2/7---12-12/14/16---2-22-222--|
D|-------------------------------------------2-22-222--|
A|-3/5/7--4---3/5/7-/10--4/5---10-10/12/14---0-00-000--|
E|-----------------------------------------------------|

e|--------------------------------------------------|
B|--------------------------------------------------|
G|-5/7/9--2---5/7/9-/12--2/7---12-12/14/16---2---22-|
D|-------------------------------------------2---22-|
A|-3/5/7--4---3/5/7-/10--4/5---10-10/12/14---0---00-|
E|--------------------------------------------------|

Solo (second guitar)
e|------------------------------------------|
B|------------------------------------------|
G|------------------------------------------| 
D|------------------------------------------|
A|-2-----2--2-----2-2------2-----2--2-----2-|
E|-0-3-4-0--0-3-4-0-0-3-4--0-3-4-0--0-3-4-0-|

e|-------------------------------------------------------------------------|
B|-------------------------------------------------------------------------|
G|-------------------------------------------------------------------------|
D|-------------------------------------------------------------------------|
A|-------------------------------------------------------------------------|
E|-0000-3-0000-3-0-3-0000-3-0000-3-0-3-0000-3-0000-3-0-3-0000-3-0000-3-0-3-|

Interclude [02:40]
e|-------------------------------------------------------------------------|
B|-------------------------------------------------------------------------|
G|-------------------------------------------------------------------------|
D|---------------------XX---------------------XX--------------9/11/12------|
A|---------------------XX---------------------XX--5/7/9/10/12--------------|
E|-0000-3-0000-3-0-3-0-XX-0000-3-0000-3-0-3-0-XX---------------------------|

Verse 4 \ Outro
e|-----------------------------------------------------------|
B|-----------------------------------------------------------|
G|-----------------------------------------------------------|
D|-2-----2--2-----2--2------2-----2--2-----2--2--------------| X2
A|-2-----2--2-----2--2------2-----2--2-----2--2--------------|
E|-0-3-4-0--0-3-4-0--0-3-4--0-3-4-0--0-3-4-0--0-3-4----------|
   * * * *  * * * *  * * *  * * * *  * * * *  * * *

e|--------------------------------|
B|--------------------------------|
G|--------------------------------|
D|-2-----2--2-----2--2------22----| 
A|-2-----2--2-----2--2------22----|
E|-0-3-4-0--0-3-4-0--0-3-4--00----|
   * * * *  * * * *  * * *  


************************************

| /   slide up
| \   slide down
| h   hammer-on
| p   pull-off
| ~   vibrato
| +   harmonic
| x   Mute note
| b   Bend
| pb  Pre-bend
| br  Bend release
| pbr Pre-bend release
| brb Bend release bend

************************************
            
Submit corrections

comments powered by Disqus
↑ Back to top | Feelabout Tabs for Sing. Lyrics for acoustic guitar and electric guitar. Tablatures and chords are parodies/interpretations of the original songs. You may use it for private study, scholarship, research or language learning purposes only