>
 >
Jail Back

Jail Back Guitar Tabs

Feelabout - Jail Back chords, tabs, tablatures, lyrics

Guitar lessons | Add/correct | Request | Top 50 tabs Artists:  A B C D E F G H I J K L M N O P Q R S T U V W X Y Z 0-9

Jail Back Guitar Tabs – Feelabout

CD, Sheet music, Poster

Do you like Jail Back? Share with your friends now
Tabs
-------------------------------------------------------------------------------
-------------------------------------------------------------------------------


Tuning: standard E

Opening
e|------0--|--------------------------------------|
B|-----0---|--------------------------------------|
G|----2----|-----14-----14-----14-----14-----14---|
D|---4-----|--16-----16-----16-----16-----16------|
A|--4------|--------------------------------------|
E|---------|--------------------------------------|
   
Verse (along with opening chord)
e|-------------------------------------------|
B|--14-14-14--13-13-13--12-12-12--10-10-10---|
G|-------------------------------------------|
D|-------------------------------------------|
A|-------------------------------------------|
E|-------------------------------------------|

Chorus
e|----------xx-xxx---------------------------xx-xxx--------|-------------|
B|----------xx-xxx---------------------------xx-xxx--------|-------------|
G|----4--2--xx-xxx-----4--2--9-9-9-----4--2--xx-xxx----4-2-|555555-55555/|
D|-4--4--2--xx-xxx--4--4--2---7-7---4--4--2--xx-xxx--4-4-2-|555555-55555/|
A|-4--2--0--xx-xxx--4--2--0---------4--2--0--xx-xxx--4-2-0-|333333-33333/|
E|-2--------xx-xxx--2---------------2--------xx-xxx--2-----|-------------|

Verse (along with opening chord)
e|----------------------------------------------------------|
B|--14-14-14--13-13-13--12-12-12--10-10-10--12b14--14b10----|
G|-------------------------------------------------------11-|
D|----------------------------------------------------------|
A|----------------------------------------------------------|
E|----------------------------------------------------------|


e|----------------------------------------------------------|
B|--12p10-12b14------14-14-14--13-13-13--12-12-12--10-10-10-|
G|----------------------------------------------------------|
D|----------------------------------------------------------|
A|----------------------------------------------------------|
E|----------------------------------------------------------|

Chorus
e|-xx-xxx-----------xx-xxx---------------------------xx-xxx--------|
B|-xx-xxx-----------xx-xxx---------------------------xx-xxx--------|
G|-xx-xxx-----4--2--xx-xxx-----4--2--9-9-9-----4--2--xx-xxx----4-2-|
D|-xx-xxx--4--4--2--xx-xxx--4--4--2---7-7---4--4--2--xx-xxx--4-4-2-|
A|-xx-xxx--4--2--0--xx-xxx--4--2--0---------4--2--0--xx-xxx--4-2-0-|
E|-xx-xxx--2--------xx-xxx--2---------------2--------xx-xxx--2-----|

Bridge guitar 1 ramonesing
e|--9--|
B|-----|
G|--6--|
D|-----|
A|-----|
E|-----|

Bridge guitar 2 ramonesing
e|---------------------------------------/|
B|---------------------------------12-14-/|
G|-6-9-11----6-9-11----6-11-9----6-------/|
D|---------------------------------9--11-/|
A|-4-7-9-----4-7-9-----4-9--7----4-------/|
E|---------------------------------------/|

Fill 1   
e|---------------------------------------------------------------------|
B|---------------------------------------------------------------------|
G|---------------------------------------------------------------------|
D|---------------------------------------------------------------------|
A|-22223332--22-5-2-5--22223332--x2x2x2x2--22223332--22-5-2-5--22223332|
E|-22223332--22---2----22223332--X2X2x2x2--22223332--22---2----22223332|

Solo (on Fill 1)
e|------------------------------------------------------------|
B|-----------------------------------5---5------------5\9/7---|
G|-4\6-4/2-----2-4-2-4\6-4/2-----4\6---6---6-4-6--666---------|
D|---------2h4------------------------------------------------|
A|------------------------------------------------------------|
E|------------------------------------------------------------|

Chorus
e|----------xx-xxx---------------------------xx-xxx--------|
B|----------xx-xxx---------------------------xx-xxx--------|
G|----4--2--xx-xxx-----4--2--9-9-9-----4--2--xx-xxx----4-2-|
D|-4--4--2--xx-xxx--4--4--2---7-7---4--4--2--xx-xxx--4-4-2-|
A|-4--2--0--xx-xxx--4--2--0---------4--2--0--xx-xxx--4-2-0-|
E|-2--------xx-xxx--2---------------2--------xx-xxx--2-----|

Outro  
e|---------------------------------------------------------------------|
B|---------------------------------------------------------------------|
G|---------------------------------------------------------------------|
D|---------------------------------------------------------------------|
A|-22223332--22-5-2-5--22223332--x2x2x2x2--22223332--22-5-2-5--22223332|
E|-22223332--22---2----22223332--X2X2x2x2--22223332--22---2----22223332|



************************************

| /   slide up
| \   slide down
| h   hammer-on
| p   pull-off
| ~   vibrato
| +   harmonic
| x   Mute note
| b   Bend
| pb  Pre-bend
| br  Bend release
| pbr Pre-bend release
| brb Bend release bend

************************************





Comments


Popular Feelabout tabs & chords
Colors And Shapes Tabs
Sing Tabs
Slave Tabs
Small Mind Tabs


Song lyrics



↑ Back to top | Tablatures and chords are parodies/interpretations of the original songs. You may use it for private study, scholarship, research or language learning purposes only
© 2014 AZChords.com Contact us | Privacy policy | DMCA | Add/correct tabs | Request tabs | Top 50 tabs