» » »

Feeder, We Can't Rewind Tabs (ver.2)

Artists:  A B C D E F G H I J K L M N O P Q R S T U V W X Y Z # 

We Can't Rewind Tabs (ver.2)

Feeder Tabs
 Rating:
4/5 (4 votes)
We Can't Rewind lessons Tabs too difficult? Try these video lessons and learn fast
1
                No notes that I can think of, so here you go: (i'm tabbing this as it's downloading from
napster as the album is released next monday. i AM going to buy it so don't sue me!)

Intro/Verse
Clean w/ slight echo
e|---------------------------------------
B|----------------------------(7-7-7)----
G|---7-7-7-7-7-7-7-7-7/5-5-5-5-5-5-5-----
D|---7-7-7-7-7-7-7-7-7/5-5-5-5-5-5-5-----
A|-5-------------------------------------
E|---------------------------------------

This is just repeated over and over through the verse. The notes are played very quietly
and only every OTHER time.

Chorus (First 2 times)
Distortion :-))
e|----------------------------------------------------
B|----------------------------------------------------
G|--7-7-----------------------------------------------
D|--7-7---------7-7----------9-9----------5-5---------
A|--5-5---------7-7----------9-9----------5-5---------
E|--------------5-5----------7-7----------3-3---------
        This is     our time     we can't     rewind 
       Our place    to shine now we can do it anyway

(Second 2 times)
e|------------------------------------------------------
B|------------------------------------------------------
G|--7-7-7-7---------------------------------------------
D|--7-7-7-7-----7-7-7-7------9-9-9-9-------5-5-5-5------
A|--5-5-5-5-----7-7-7-7------9-9-9-9-------5-5-5-5------
E|--------------5-5-5-5------7-7-7-7-------3-3-3-3------
       This is      our time     to feel       sublime
       Our place    to shine now we can do it anyway

Then verse again

When you get to the chorus again, play the second part 6 times.

Bridge

e|----------------------------------------------
B|----------------------------------------------
G|----------------------7-7-7-7-7-7-7-7---------
D|-5-5-5-5-----7-7-7-7--7-7-7-7-7-7-7-7---------
A|-5-5-5-5-----7-7-7-7--5-5-5-5-5-5-5-5---------
E|-3-3-3-3-----5-5-5-5--------------------------
   Stop taking me for a fool now   yeah

e|-------------------------------------------------------------
B|-------------------------------------------------------------
G|-------------------------7-7-7-7-----------------------------
D|-5-5-5-5-------7-7-7-7---7-7-7-7-------9-9-9-9---------------
A|-5-5-5-5-------7-7-7-7---5-5-5-5-------9-9-9-9---------------
E|-3-3-3-3-------5-5-5-5-----------------7-7-7-7---------------
   I've got this feeling inside me but I guess you knew


e|----------------------------------------------------------------------
B|----------------------------------------------------------------------
G|-7-7-7-7-7-7-7-7--------------------------------7-7-7-7-7-7-7-7-7-----
D|-7-7-7-7-7-7-7-7----------5-5-5-5-7-7-7-7-------7-7-7-7-7-7-7-7-7-----
A|-5-5-5-5-5-5-5-5----------5-5-5-5-7-7-7-7-------5-5-5-5-5-5-5-5-5-----
E|--------------------------3-3-3-3-5-5-5-5-----------------------------
       We can work it out   we can find someplace new

Then 
Chorus (2nd part x 2)
Then verse x 2
Chorus (1st part x quite a lot with 3 & 4th chords sometimes swapped round 
so it goes 1 2 4 3)
            
Submit corrections

comments powered by Disqus
↑ Back to top | Feeder Tabs for We Can't Rewind. Lyrics for acoustic guitar and electric guitar. 1 Tablatures and chords are parodies/interpretations of the original songs. You may use it for private study, scholarship, research or language learning purposes only