>
 >
Tangerine

Tangerine Guitar Tabs

Feeder - Tangerine chords, tabs, tablatures, lyrics

Guitar lessons | Add/correct | Request | Top 50 tabs Artists:  A B C D E F G H I J K L M N O P Q R S T U V W X Y Z 0-9

Tangerine Guitar Tabs – Feeder

CD, Sheet music, Poster

Do you like Tangerine? Share with your friends now
Tabs
Tuning: Drop D
Guitars: Gtr 1 - Distorted
         Gtr 2 - Overdriven
         Gtr 3 - Overdriven (Optional, only needed in Outro)

This is such a great song. Itís a pity the lyrics are so rubbish. I think its all right, 

Intro: (00:00)
Gtr 1
|------------------------------------|
|------------------------------------|
|------------------------------------|
|--0h3--0h3--0h3--0h3----------------|
|--0h3--0h3--0h3--0h3----------------|
|--0h3--0h3--0h3--0h3---X/-----------|
                       |Pick scrape|

Interlude: (00:05)
Gtr 1 + 2
|-------------------------------------------------|
|-------------------------------------------------|
|-------------------------------------------------| x6
|--1h3--3--3--3--1--1--1--1--0--0--0--0--6--6--6--|
|--1h3--3--3--3--1--1--1--1--0--0--0--0--6--6--6--|
|--1h3--3--3--3--1--1--1--1--0--0--0--0--6--6--6--|


Verse: (00:18)
   'Tangerine,   Tiny green...'
Gtr 1
|-------------------------------------------------|
|-------------------------------------------------|
|-------------------------------------------------| x8
|--1h3--3--3--3--1--1--1--1--0--0--0--0--6--6--6--|
|--1h3--3--3--3--1--1--1--1--0--0--0--0--6--6--6--|
|--1h3--3--3--3--1--1--1--1--0--0--0--0--6--6--6--|

2nd Interlude: (00:35)
   'Tangerine,   Tangerine...'
Gtr 1
|-------------------------------------------------|
|-------------------------------------------------|
|-------------------------------------------------| x4
|--1h3--3--3--3--1--1--1--1--0--0--0--0--6--6--6--|
|--1h3--3--3--3--1--1--1--1--0--0--0--0--6--6--6--|
|--1h3--3--3--3--1--1--1--1--0--0--0--0--6--6--6--|

Gtr 2
|--------------------------------------------------|
|--------------------------------------------------|
|--8h10-10-10-10-8--8--8--8--7--7--7--7--13-13-13--| x4
|--------------------------------------------------|
|--6h8--8--8--8--6--6--6--6--5--5-5-5-5--11-11-11--|
|--------------------------------------------------|


Pre Chorus: (00:43)
Gtr 2
|----------------------------------------------------------------|
|----------------------------------------------------------------|
|----------------------------------------------------------------|
|----------------------------------------------------------------|
|---------11---------11------11---------11---------11------11----|
|--0--0-------0--0-------0-------0--0-------0--0-------0---------|
  |With wah wah -------------------------------------------------|


CHORUS: (00:48)
   'I know it's sad...'
Gtr 1
|--------------------------------------------------------|
|--------------------------------------------------------|
|--5--5--5--5-5-7--7--7--7-7-----------------------------| x4
|--5--5--5--5-5-7--7--7--7-7-10-10-10-1010-0--0--0--0-0--|
|--3--3--3--3-3-5--5--5--5-5-8--8--8--8-8--0--0--0--0-0--|
|----------------------------8--8--8--8-8--0--0--0--0-0--|


Gtr 2
|---------------------------------------------------|
|---------------------------------------------------|
|--9--9--9--9--9--9--9--9--9--9--9--9--9--9--9--9---| x4
|--10-10-10-10-10-10-10-10-10-10-10-10-10-10-10-10--|
|---------------------------------------------------|
|---------------------------------------------------|


Interlude x2 (01:05)


Verse x8 (01:09)
   '28,   Suffocate...'


2nd Interlude x4 (01:26)
   'Tangerine,   Tangerine...'


Pre Chorus (01:34)


CHORUS 2: (01:38)
   'I know it's sad...'
Gtr 1
|--------------------------------------------------------|
|--------------------------------------------------------|
|--5--5--5--5-5-7--7--7--7-7-----------------------------| x3
|--5--5--5--5-5-7--7--7--7-7-10-10-10-1010-0--0--0--0-0--|
|--3--3--3--3-3-5--5--5--5-5-8--8--8--8-8--0--0--0--0-0--|
|----------------------------8--8--8--8-8--0--0--0--0-0--|


Gtr 2
|---------------------------------------------------|
|---------------------------------------------------|
|--9--9--9--9--9--9--9--9--9--9--9--9--9--9--9--9---| x3
|--10-10-10-10-10-10-10-10-10-10-10-10-10-10-10-10--|
|---------------------------------------------------|
|---------------------------------------------------|

then
Gtr 1
|-----------------------------|
|-----------------------------|
|--5--5--5--5-5---------------|
|--5--5--5--5-5-0--0--0--0-0--|
|--3--3--3--3-3-0--0--0--0-0--|
|---------------0--0--0--0-0--|

Gtr 2
|--------------------------|
|--------------------------|
|--9--9--9--9--9--9--9--9--|
|--10-10-10-10-10-10-10-10-|
|--------------------------|
|--------------------------|


Bridge: (01:54)
Gtr 1
|------------------------------------------------------|
|------------------------------------------------------|
|------------------------------------------------------|
|--10-10-10-10-10-10-10-10----3--3--3--6--0----0--0----|
|--8--8--8--8--8--8--8--8-----3--3--3--6--0----0--0----|
|--8--8--8--8--8--8--8--8-----3--3--3--6--0----0--0----|
  |PM--------------------------------------------------|

   'See me as I climb...'
|----------------------------------------------------|
|----------------------------------------------------|
|----------------------------------------------------|
|--10----10----10----10-------3--3--3--6--0----0--0--|
|--8--8--8--8--8--8--8--8-----3--3--3--6--0----0--0--|
|--8--8--8--8--8--8--8--8-----3--3--3--6--0----0--0--|

|----------------------------------------------------|
|----------------------------------------------------|
|----------------------------------------------------|
|--10----10----10----10-------3--3--3--6--0----0--0--|
|--7--7--7--7--8--8--8--8-----3--3--3--6--0----0--0--|
|--7--7--7--7--8--8--8--8-----3--3--3--6--0----0--0--|

|----------------------------------------------------|
|----------------------------------------------------|
|----------------------------------------------------|
|--10----10----10----10-------3--3--3--6--0----0--0--|
|--8--8--8--8--8--8--8--8-----3--3--3--6--0----0--0--|
|--8--8--8--8--8--8--8--8-----3--3--3--6--0----0--0--|

then
Gtr 1
|---------------------------------|
|---------------------------------|
|---------------------------------|
|--10-----------------------------|
|--8------------------------------|
|--8------------------------------|

Gtr 2
|---------------------------------|
|---------------------------------|
|---------------------------------|
|---------------------------------|
|--1----3--5--7--8--10--12--13qb--|
|---------------------------------|


Solo: (02:19)
Gtr 1 plays Verse x4
Gtr 2 just makes noise, play anything and use loads of distortion


2nd Interlude x4 (02:28)
   'Tangerine,   Tangerine...'


Pre Chorus x2 (02:36)


CHORUS 3: (02:45)
   'I know it's sad...'
Gtr 1
|--------------------------------------------------------|
|--------------------------------------------------------|
|--5--5--5--5-5-7--7--7--7-7-----------------------------| x9
|--5--5--5--5-5-7--7--7--7-7-10-10-10-1010-0--0--0--0-0--|
|--3--3--3--3-3-5--5--5--5-5-8--8--8--8-8--0--0--0--0-0--|
|----------------------------8--8--8--8-8--0--0--0--0-0--|

Gtr 2
|---------------------------------------------------|
|---------------------------------------------------|
|--9--9--9--9--9--9--9--9--9--9--9--9--9--9--9--9---| x9
|--10-10-10-10-10-10-10-10-10-10-10-10-10-10-10-10--|
|---------------------------------------------------|
|---------------------------------------------------|

then
Gtr 1
|-----------------------------|
|-----------------------------|
|--5--5--5--5-5---------------|
|--5--5--5--5-5-0--0--0--0-0--|
|--3--3--3--3-3-0--0--0--0-0--|
|---------------0--0--0--0-0--|

Gtr 2
|--------------------------|
|--------------------------|
|--9--9--9--9--9--9--9--9--|
|--10-10-10-10-10-10-10-10-|
|--------------------------|
|--------------------------|


Outro: (03:21)
Gtr 1
|--------------------------------|
|--------------------------------|
|--------------------------------| x4 gradually fading out
|--10---10---------10---10-------|
|--8----8----------8----8--------|
|--8----8----------8----8--------|

Gtr 2 (Let ring)
|-----------12--------------12---|
|--10--------------10------------|
|--------------------------------| x4 gradually fading out
|--------------------------------|
|--------------------------------|
|--------------------------------|
           |NH|            |NH|

Gtr 3 (Listen to the song to hear where this fits in)
|--------------------------------------------------------------|
|--------------------------------------------------------------|
|--------------------------------------------------------------|
|--------------------------------------------------------------| Repeat as
|--1----0-1---3---5----7--8----10----12-13----[1----1----1-----|>needed until
|--------------------------------------------------------------| faded out





Comments


Popular Feeder tabs & chords
Radioman Bass Tabs
Sweet Bass Tabs
Pain On Pain Chords
Buck Rogers 5 Tabs
Here In The Bubble Tabs
Pictures Of Pain Tabs
Space Age Hero Tabs
Sweet Sixteen 1 Tabs
Love Pollution Ukulele
Oxygen Ukulele


Song lyrics



↑ Back to top | Tablatures and chords are parodies/interpretations of the original songs. You may use it for private study, scholarship, research or language learning purposes only
© 2014 AZChords.com Contact us | Privacy policy | DMCA | Add/correct tabs | Request tabs | Top 50 tabs