» » »

Sweet Bass tabs (ver.1)

Artists:  A B C D E F G H I J K L M N O P Q R S T U V W X Y Z # 

Sweet Bass tabs (ver.1)

Feeder
Rating:
0/5 (0 votes)

Hard to play? Try these video lessons and learn fast.
                Sweet 16 by Feeder (From Swim and Gran Turismo 1)
Drop D tuning

Intro Guitar only

Verse:  

G|------------------------------------------|
D|------------------------------------------|
A|------------------------------------------|
D|--12-0-12-0-10--0-0---12---0-12-0-5-7-10--|

Chorus:

G|------------------------------------------------------------------|
D|------------------------------------------------------------------|
A|--3--3--3-----------------0--0--0-3--3--3-----------------0--0--0-|
D|----------2--2--2-3--3--3-----------------2--2--2-3--3--3---------|

Bridge:

G|--------------------------------------------------|
D|--------------------------------------------------|
A|--------------------------------------------------|
D|--2----2-0-2---5-----8-8-8-8-----2-0-2---5-----8\7|
            
Hard to play? Try these video lessons and learn fast. | Correct




comments powered by Disqus
↑ Back to top | Tablatures and chords are parodies/interpretations of the original songs. You may use it for private study, scholarship, research or language learning purposes only