» » »

Feeder, Summer's Gone Tabs (ver.1)

Artists:  A B C D E F G H I J K L M N O P Q R S T U V W X Y Z # 

Summer's Gone Tabs (ver.1)

Feeder Tabs
 Rating:
4/5 (4 votes)
Summer's Gone lessons Tabs too difficult? Try these video lessons and learn fast
1
                PROPS GO TO: Ed

Feeder | Summer's Gone - Comfort in Sound


-------------------------------------------

 intro
-------

main riff (x2)

    G		    E               B
E---3----3----3--3--0----0----0--0--2----2----2---2--2----2--2--2--
B---3----3----3--3--0----0----0--0--4----4----4---4--4----4--4--4--
G---4----4----4--4--1----1----1--1--4----4----4---4--4----4--4--4--
D---5----5----5--5--2----2----2--2--4----4----4---4--4----4--4--4--
A---5----5----5--5--2----2----2--2--2----2----2---2--2----2--2--2--
E---3----3----3--3--0----0----0--0--2----2----2---2--2----2--2--2--
    
    D    U    D  U  D    U    D  U  D    D    D   U  D    U  D  U

Strumming =

(D)own
(U)p



 verse
-------


G E         B      (same as above)
Crack and break,

G E         B
Life's big mistake,

     C          D
I'm feeling it too.

G E         B
There's no way home,

G		       B
The summer's gone, the summer's gone away,


Continues....
 _______
|G E  B |
|G E  B |  (the verses in
|C D    |    a nutshell)
|G   B  |
 -------

and then...
         
G                     B
The summer's gone, the love has gone,

G                     B
The summer's gone ... AAAwwwwwaaaaYYYY!

Chords Used:

    G    E    B    C    D
E---3----0----2----3----5
B---3----0----4----5----7
G---4----1----4----5----7
D---4----1----4----5----7
A---5----2----2----3----5
E---3----0----2----3----5








 chorus (same chord positions)
--------

Slight Distortion ;)


G      E       B    D
It's turned to grey

G	E    B
Just burned away

   C	    D
A moment too soon

G      E       B
We've turned to grey

C
Just like yesterday

B
It's turned to black and white








 Other Part (same chord postition - A = normal pos (003330) )
------------

C			    D		B			C
Ohh you're thinking back, you're going back to places you have been,

			G	  A		C
Where day's can last forever but you can only dream

C			D		B			C
Oooh we're going back, and looking back to places that we've seen,

		    A
Moments that have been, places we can dream.


Followed By...


E------------------------------------
B-------------------12--12--12--12---
G--12--14--16--11-----12--12--12--12-
D------------------------------------  (x2)
A------------------------------------
E------------------------------------

E------------------------------------
B------------------------------------
G--12--14--16--11--12--11--12--------
D------------------------------------  (x2)
A------------------------------------
E------------------------------------


In background simultaneously...

G Em B D
G Em B C D
G Em B C B








 Ending Chorus
---------------

G      E       B	D
It's turned to grey

G	E    B
Just burned away

C	    D
A moment too soon

G      E       B
We've turned to grey

C
Just like yesterday

G      E       B	D
It's turned to grey

G	E    B
Just burned away

C	    D
A moment too soon

G      E       B
We've turned to grey

C
Just like yesterday

B            G    C
yesterday..............


-------------------------------------------------------
The strumming throughout the whole song is pretty basic
and you can even improvise for yourself it will still
sound great.
-------------------------------------------------------

Bada-bing-bada-boom that's it.

Hope you can figure it out because its a quality song, one of my faves of the album.

All Feeder's songs are great to play especially Buck Rogers, Come Back Around and 7 days in the Sun, look for them tabbed.

Cya
            
Submit corrections

comments powered by Disqus
↑ Back to top | Feeder Tabs for Summer's Gone. Lyrics for acoustic guitar and electric guitar. 1 Tablatures and chords are parodies/interpretations of the original songs. You may use it for private study, scholarship, research or language learning purposes only