» » »

Feeder, Standing On The Edge Tabs (ver.1)

Artists:  A B C D E F G H I J K L M N O P Q R S T U V W X Y Z # 

Standing On The Edge Tabs (ver.1)

Feeder Tabs
Rating:
0/5 (0 votes)
Standing On The Edge lessons Tabs too difficult? Try these video lessons and learn fast
                
MAIN RIFF:

E|--------------------------------------|
B|--------------------------------------|
G|--4s--6--4s--6--4s--6--4s--6--4-4--7--|
D|--4s--6--4s--6--4s--6--4s--6--4-4--7--|
A|--2s--4--2s--4--2s--4--2s--4--2-2--5--|
E|--------------------------------------|

VERSE:


    Db Amaj Emaj
E|--4---0---0---|
B|--6---2---0---|
G|--6---2---1---|
D|--6---2---2---|
A|--4---0---2---|
E|----------0---|

CHORUS:

  Db   Ab A  F#
  REV  O  LU TION

BRIDGE: (You want to fight, gotta fight it no one else will!)

Db, D5

LEAD BEFORE FINAL CHORUS:

E|--------------|
B|--2---4---5---|
G|--4b--6b--7b--|
D|--------------|
A|--------------|
E|--------------|

Outro: Feedback + amusing fairground sounds
END- By Alex Ball- June 2000, January-April 2001
</XMP></BODY>
</HTML>
            

comments powered by Disqus
↑ Back to top | Feeder Tabs for Standing On The Edge. Lyrics for acoustic guitar and electric guitar. Tablatures and chords are parodies/interpretations of the original songs. You may use it for private study, scholarship, research or language learning purposes only