» » »

Shade Bass tabs (ver.1)

Artists:  A B C D E F G H I J K L M N O P Q R S T U V W X Y Z # 

Shade Bass tabs (ver.1)

Feeder
Rating:
0/5 (0 votes)

Hard to play? Try these video lessons and learn fast.
                

THIS IS A REAR SONG FROM THE GRAND TURISMO SOUND TRACK
IT IS PLAYED IN DROPE D

INTRO

G------------------------------------------------------
D------------------------------------------------------
A------------------------------------------------------
D-0-0-0-0-0-0-0-0-0-0-0-0-0-0-0-0-0-0-0-0-0-0-0-0-0-10- X 3


bit just befor choures

G-------------------------------------------
D-------------------------------------------
A-------------------------------------------
D-2-2-2-2-2-2-3-3-3-3-3-3-------------------

 only 1

CHOURES

G-------------------------------------------
D-------------------------------------------
A---------3------3-3-----3-----3------------
D-----0-0---0-0------0-0---0-0--------------
            
Hard to play? Try these video lessons and learn fast. | Correct




comments powered by Disqus
↑ Back to top | Tablatures and chords are parodies/interpretations of the original songs. You may use it for private study, scholarship, research or language learning purposes only