» » »

Feeder, Polythene Girl Tabs (ver.1)

Artists:  A B C D E F G H I J K L M N O P Q R S T U V W X Y Z # 

Polythene Girl Tabs (ver.1)

Feeder Tabs
Rating:
0/5 (0 votes)
Polythene Girl lessons Tabs too difficult? Try these video lessons and learn fast
                GROUP: Feeder
Drop-D Tuning

This song sounds a little strange if you're playing by yourself. Try it with someone else
or with the CD as a backing.

INTRO/VERSE:

Guitar 1:
e|------------------------------|
B|------------------------------|
G|------------------------------|
D|--11-11-11--------------------|
A|-----------10-10-10-10h12p-10-|
D|------------------------------|

Guitar 2:
e|---------------------------------------------------|
B|---------------------------------------------------|
G|---------------------------------------------------|
D|--9h11-11-11-11s12-12-12-12s14-14-14-14s17-17-17---|
A|--0--0--0--0--0--0--0--0--0--0--0--0--0--0--0--0---|
D|---------------------------------------------------|

Guitar (2nd time through)
e|----------------------------------------------------|
B|----------------------------------------------------|
G|----------------------------------------------------|
D|-17s11-11-11-11s12-12-12-12s14-14-14-14s17-17-17h19-|
A|--0--0--0--0--0--0--0--0--0--0--0--0--0--0--0--0--0-|
D|----------------------------------------------------|
These riffs contine over the chords A and D

INTERLUDE:
e|--------------------------------------------|
B|--------------------------------------------|
G|---0--0--0--0--0--0--0--0--0-0-0-0-0-0-0-0--|
D|---9--9--9--9--9--9--9--9--0-0-0-0-0-0-0-0--|
A|--10-10-10-10-10-10-10-10--9-9-9-9-9-9-9-9--|
D|--------------------------------------------|

LINK TO CHOURS:
e|-----------------------------------------------|
B|-----------------------------------------------|
G|---0--0--0--0--0--0--0--0--0--0-0-0-0-0-0-0-0--|
D|---9--9--9--9--9--9--9--9--9--0-0-0-0-0-0-0-0--|
A|--10-10-10-10-10-10-10-10-10--9-9-9-9-9-9-9-9--|
D|-----------------------------------------------|

e|-----------------------------------|
B|-----------------------------------|
G|--0-0-0-0-0-0-0-0--0-0-0-0-0-0-0-0-|
D|--7-7-7-7-7-7-7-7--7-7-7-7-7-7-7-7-|
A|--8-8-8-8-8-8-8-8--8-8-8-8-8-8-8-8-|
D|-----------------------------------|

CHOURS:
   Bb5  F5    C5    G5
e|---------------------|
B|---------------------|
G|---------------------|
D|-10----3----10----5--|
A|--8----3----10----5--|
D|--8----3----10----5--|

BRIDGE:
e|---------------------------------|
B|---------------------------------|
G|--5-5-5-------5-5-5--------------|
D|--5-5-5-4-4-4-5-5-5-4-4-4-7-7-7--|
A|--3-3-3-4-4-4-3-3-3-4-4-4-7-7-7--|
D|--------4-4-4-------4-4-4-7-7-7--|
            

comments powered by Disqus
↑ Back to top | Feeder Tabs for Polythene Girl. Lyrics for acoustic guitar and electric guitar. Tablatures and chords are parodies/interpretations of the original songs. You may use it for private study, scholarship, research or language learning purposes only