» » »

Miss You Bass tabs (ver.1)

Artists:  A B C D E F G H I J K L M N O P Q R S T U V W X Y Z # 

Miss You Bass tabs (ver.1)

Feeder
Rating:
0/5 (0 votes)

Tabs too difficult? Try these video lessons and learn fast.
                (guitar intro)X1


bass intro-X2
G|---------------------------------------------------------------------------|
D|---------------------------------------------------------------------------|
A|--2-2-2-2-5---2---2-2-2-5-5-5-5-------------------7-7-7-7-7-7-7------------|
E|----------------------------------3-3-3-3-3-3-3----------------------------|



Verse-X4

G|---------------------------------------------------------------------------|
D|---------------------------------------------------------------------------|
A|--2-2-2-2-2-2-2-2-2-2-2-2-2-2-2-2-----------------7-7-7-7-7-7-7-7----------|
E|----------------------------------3-3-3-3-3-3-3-3--------------------------|




Prechorus-

G|---------------------------------------------------------------------------|
D|---------------------------------------------------------------------------|
A|----------------------------------2-2-2-2-2-2-2-2-5-5-5-5-5-5-5-5----------|
E|--3-3-3-3-3-3-3-3-2-2-2-2-2-2-2-2------------------------------------------|


G|---------------------------------------------------------------------------|
D|---------------------------------------------------------------------------|
A|----------------------------------2-2-2-2-2-2-2-2-2-2-2-2------------------|
E|--3-3-3-3-3-3-3-3-2-2-2-2-2-2-2-2-------------------------3-3-3-3----------|



Chorus-

G|---------------------------------------------------------------------------|
D|---------------------------------------------------------------------------|
A|----2-2-2-2-5---2---2-2-2-5-5-5-5-----------------7-7-7-7-7-7-7-7----------|
E|----------------------------------3-3-3-3-3-3-3-3--------------------------|

G|---------------------------------------------------------------------------|
D|---------------------------------------------------------------------------|
A|--2-2-2-2-2-5---2---2-2-2-5-5-5-5-----------------7-7-7-7-7-7-7-7----------|
E|----------------------------------3-3-3-3-3-3-3-3--------------------------|




break- X2

G|---------------------------------------------------------------------------|
D|---------------------------------------------------------------------------|
A|--2-2-2-2-2-2-2-2-2-2-2-2-2-2-2-2-----------------7-7-7-7-7-7-7-7----------|
E|----------------------------------3-3-3-3-3-3-3-3--------------------------|




Verse-X4

G|---------------------------------------------------------------------------|
D|---------------------------------------------------------------------------|
A|--2-2-2-2-2-2-2-2-2-2-2-2-2-2-2-2-----------------7-7-7-7-7-7-7-7----------|
E|----------------------------------3-3-3-3-3-3-3-3--------------------------|


Prechorus-

G|---------------------------------------------------------------------------|
D|---------------------------------------------------------------------------|
A|----------------------------------2-2-2-2-2-2-2-2-5-5-5-5-5-5-5-5----------|
E|--3-3-3-3-3-3-3-3-2-2-2-2-2-2-2-2------------------------------------------|

G|---------------------------------------------------------------------------|
D|---------------------------------------------------------------------------|
A|----------------------------------2-2-2-2-2-2-2-2--------------------------|
E|--3-3-3-3-3-3-3-3-2-2-2-2-2-2-2-2-----------------5-5-5-5-5-5-5-5----------|

G|---------------------------------------------------------------------------|
D|---------------------------------------------------------------------------|
A|----------------------------------2-2-2-2-2-2-2-2-5-5-5-5-5-5-5-5----------|
E|--3-3-3-3-3-3-3-3-2-2-2-2-2-2-2-2------------------------------------------|

G|---------------------------------------------------------------------------|
D|---------------------------------------------------------------------------|
A|----------------------------------2-2-2-2-2-2-2-2-2-2-2-2------------------|
E|--3-3-3-3-3-3-3-3-2-2-2-2-2-2-2-2-------------------------3-3-3-3----------|

Chorus-

G|---------------------------------------------------------------------------|
D|---------------------------------------------------------------------------|
A|----2-2-2-2-5---2---2-2-2-5-5-5-5-----------------7-7-7-7-7-7-7-7----------|
E|----------------------------------3-3-3-3-3-3-3-3--------------------------|

G|---------------------------------------------------------------------------|
D|---------------------------------------------------------------------------|
A|--2-2-2-2-2-5---2---2-2-2-5-5-5-5-----------------7-7-7-7-7-7-7-7----------|
E|----------------------------------3-3-3-3-3-3-3-3--------------------------|


Middle8/bridge - 

G|---------------------------------------------------------------------------|
D|---------------------------------------------------------------------------|
A|----------------------------------2-2-2-2-2-2-2-2-2-2-2-2-2-2-2-2----------|
E|--3-3-3-3-3-3-3-3-3-3-3-3-3-3-3-3------------------------------------------|

G|---------------------------------------------------------------------------|
D|---------------------------------------------------------------------------|
A|---------------------------------------------------------------------------|
E|--2-2-2-2-2-2-2-2-2-2-2-2-2-2-2-2-3-3-3-3-3-3-3-3-3-3-3-3-2-2-2-2----------|

G|---------------------------------------------------------------------------|
D|---------------------------------------------------------------------------|
A|----------------------------------2-2-2-2-2-2-2-2-2-2-2-2-2-2-2-2----------|
E|--0-0-0-0-0-0-0-0-0-0-0-0-0-0-0-0------------------------------------------|

G|---------------------------------------------------------------------------|
D|---------------------------------------------------------------------------|
A|---------------------------------------------------------------------------|
E|--2-2-2-2-2-2-2-2-2-2-2-2-2-2-2-2-3-3-3-3-3-3-3-3-5-5-5-5-5-5-5-5----------|

break (guitar onlyX1)
then
G|---------------------------------------------------------------------------|
D|---------------------------------------------------------------------------|
A|--2-2-2-2-5---2---2-2-2-5-5-5-5-------------------7-7-7-7-7-7-7------------|
E|----------------------------------3-3-3-3-3-3-3----------------------------|


chorus/outro X2
G|---------------------------------------------------------------------------|
D|---------------------------------------------------------------------------| 
A|--2-2-2-2-2-5---2---2-2-2-5-5-5-5-----------------7-7-7-7-7-7-7-7----------|
E|----------------------------------3-3-3-3-3-3-3-3--------------------------|

finish on
G|---------------------------------------------------------------------------|
D|---------------------------------------------------------------------------|
A|--2------------------------------------------------------------------------|
E|---------------------------------------------------------------------------|
            
Tabs too difficult? Try these video lessons and learn fast.


comments powered by Disqus
↑ Back to top | Tablatures and chords are parodies/interpretations of the original songs. You may use it for private study, scholarship, research or language learning purposes only