» » »

Helium Tabs (ver.1)

Artists:  A B C D E F G H I J K L M N O P Q R S T U V W X Y Z # 

Helium Tabs (ver.1)

Feeder
Rating:
0/5 (0 votes)

Hard to play? Try these video lessons and learn fast.
                Intro/Verse
E-----------------------------------------------------------------
B-----------------------------------------------------------------
G--8-8-8-8-8-8-8---------------------------------------------
D--8-8-8-8-8-8-8---6-6-6---9-9-9-9-----------------------
A--6-6-6-6-6-6-6---6-6-6---9-9-9-9-----------------------
E-----------------------4-4-4---7-7-7-7-----------------------

Pre-Chorus (also played once as a verse break)
E----------------------------------------------------------------
B----------------------------------------------------------------
G----------------------------------------------------------------
D-9-9-9-9-9-9-9-9---4-4-4-4-4-4-4-4--------------------
A-9-9-9-9-9-9-9-9---4-4-4-4-4-4-4-4--------------------
E-7-7-7-7-7-7-7-7---2-2-2-2-2-2-2-2--------------------

Chorus (work out timing and strumming)
E-------------------------------------------------------------------------
B-------------------------------------------------------------------------
G-------------------------------------------------------------------------
D---9----4----7-—2-—9—4----7------------------------------------
A---9----4-—7-—2—-9—4----7------------------------------------
E---7----2-—5-—0—-7—2----5-------------------------------------


Solo Part
E--------7—9—12—11-------7—9—12—11—14-------9—12—11---11 (x8) --12 (x4) --14(hold)---
B----7------------------------7-------------------------------7---------------------------------------------------------
G--------------------------------------------------------------------------------------------------------------------------
D--------------------------------------------------------------------------------------------------------------------------
A--------------------------------------------------------------------------------------------------------------------------
E--------------------------------------------------------------------------------------------------------------------------
STRUCTURE FOR “HELIUM”
Intro      (x2 guitar, x2 drums enter = x4)
Verse    (x3)
Pre-Chorus (used as Verse break)  (x1)
Verse    (x3)
Pre-Chorus (x1)
Chorus  (x1)
Intro      (x2)
Verse     (x3)
Pre-Chorus  (x1)
Verse     (x3)
Pre-Chorus (x1)
Chorus   (x2)
Solo Part  
Intro (breakdown)  (x2 guitar and bass)
Verse    (x3)
Pre-Chorus (x2)
Chorus   (x4)
            
Hard to play? Try these video lessons and learn fast. | Correct




comments powered by Disqus
↑ Back to top | Tablatures and chords are parodies/interpretations of the original songs. You may use it for private study, scholarship, research or language learning purposes only