» » »

Forget About Tomorrow Bass tabs (ver.1)

Artists:  A B C D E F G H I J K L M N O P Q R S T U V W X Y Z # 

Forget About Tomorrow Bass tabs (ver.1)

Feeder
Rating:
0/5 (0 votes)

Hard to play? Try these video lessons and learn fast.
                Artist - Feeder
Song - Forget About Tomorrow
Album - Comfort In Sound (2002) - Echo
Notes - Standard Tuning [EADG]

Verse
G|--------|--------|--------|--------|
D|--------|--------|--------|--------|
A|12121214|14141414|14141414|14141414|
E|--------|--------|--------|--------| x 4

Verse Fill
G|--------|--------|--------|--------|
D|--------|--------|--------|--------|
A|1010109-|9-9-1212|12121212|12121212|
E|--------|--------|--------|--------| x 2

Verse x 2
Verse Fill x 3

Chorus
G|--------|--------|     *sorry i didn't include this earlier*
D|--------|--------|     *i have tabbed both octaves of the same*
A|9---10--|12--14--|     *note because i can't make out the bass*
E|2---3---|5---7---| x 2 *here so either sounds right. don't try*
                         *to play both notes at the same time!*sorry!
Chorus Fill
G|--------|--------|
D|--------|---12---|
A|7---7-9-|10--10--|
E|--------|--------|

Chorus x 2
Chorus Fill
Verse x 4
Verse Fill x 2
Verse x 2
Verse Fill x 3
Chorus x 2
Chorus Fill
Chorus x 2
Chorus Fill x 2

Bridge
G|----------------|----------------|
D|9-9-9-9-9-9-9-9-|----------------|
A|----------------|101010109-9-9-9-|
E|----------------|----------------|

G|----------------|----------------|
D|----------------|----------------|
A|12\-------------|----------------|
E|----5-5-5-5-5-5-|0-0-0-0-0-0-0-0-|

G|----------------|----------------|
D|9-9-9-9-9-9-9-9-|----------------|
A|----------------|101010109-9-9-9-|
E|----------------|----------------|

G|----------------|----------------|
D|----------------|----------------|
A|12121212121412--|----------------|
E|----------------|1212121212121214|

G|----------------|----------------|
D|----------------|----------------|
A|----------------|101010109-9-9-9-|
E|7-7-7-7-7-7-7-7-|----------------|

G|--------|----------------|
D|--------|----------------|
A|12------|----------------|
E|--------|0-0-0-0-0-0-0-0-|

G|----------------|----------------|
D|9-9-9-9-9-9-9-9-|----------------|
A|----------------|101010109-9-9-9-|
E|----------------|----------------|

G|----------------|
D|----------------|
A|1212121212121212|
E|----------------| x 3

G|----------------|
D|--121112--------|
A|12------12121212|
E|----------------|

Verse x 4
Verse Fill x 2
Verse x 2
Verse Fill x 3
Chorus x 2
Chorus Fill
Chorus x 2
Chorus Fill
Chorus x 2
Chorus Fill (first bar only)

End
G|--------|--------|
D|--------|--------|
A|10------|(10)----|
E|--------|--------|
            
Hard to play? Try these video lessons and learn fast. | Correct




comments powered by Disqus
↑ Back to top | Tablatures and chords are parodies/interpretations of the original songs. You may use it for private study, scholarship, research or language learning purposes only