» » »

Feeder, Dove Grey Sands Tabs (ver.1)

Artists:  A B C D E F G H I J K L M N O P Q R S T U V W X Y Z # 

Dove Grey Sands Tabs (ver.1)

Feeder Tabs
 Rating:
4.6/5 (11 votes)
Dove Grey Sands lessons Tabs too difficult? Try these video lessons and learn fast
                Band: Feeder

Tuning: Standard

Capo 5th fret
notes relative to capo

Intro:
     D       Dsus2
e|---2---2---0---0----|x2
B|----3---3---3---3---|
G|-----2---2---2---2--|
D|--0---0---0---0-----|
A|--------------------|
E|--------------------|

Verse
     D       Dsus2    x2  C               G
e|---2---2---0---0----|---0---0---0---0----0---0---0---0-----| All x2
B|----3---3---3---3---|----3---3---3---3----3---3---3---3----|
G|-----2---2---2---2--|-----2---2---2---2----2---2---2---2---|
D|--0---0---0---0-----|--------------------------------------|
A|--------------------|--3---3---3---3-----------------------|
E|--------------------|-------------------3---3---3---3------|

Pre-Chorus

    D       Dsus2    x2 C
e|--2---2---0---0----|----------------------------------------| All x2
B|---3---3---3---3---|--5----5----5----5----5----5----5----5--|
G|----2---2---2---2--|---5----5----5----5----5----5----5----5-|
D|-0---0---0---0-----|-5----5----5----5----5----5----5----5---|
A|-------------------|----------------------------------------|
E|-------------------|----------------------------------------|

Chorus

you can play these chords using an arpeggio (follow the previous tabs to
understand how to pick the strings), but i prefer playing it using standard
chords


D
Led by devotion
      C
celebrate
      Em
celebrate
        D
celebration
 C         G
dove grey sands
D
Led by devotion
      C
celebrate
      Em
celebrate
       D
celebrate now
 C         G
dove grey sands

repeat intro
repeat verse
repeat pre-chorus
repeat chorus

Bridge

(Feeling like it's over...)

  F               C     Em7       Dm              C       G
e|-0---0---0---0---0---0---0---0---1---1---1---1---0---0---0---0---|x2
B|--1---1---1---1---1---1---1---1---3---3---3---3---1---1---1---1--|
G|---2---2---2---2---0---0---0---0---2---2---2---2---0---0---0---0-|
D|3---3---3---3-------------------0---0---0---0--------------------|
A|----------------3---3---2---2-------------------3---3------------|
E|--------------------------------------------------------3---3----|

repeat verse x 3

outro:
     D       Dsus2
e|---2---2---0---0----|x2
B|----3---3---3---3---|
G|-----2---2---2---2--|
D|--0---0---0---0-----|
A|--------------------|
E|--------------------|

then
   D        Dsus2
e|---2---2---0---0----2-|
B|----3---3---3---3-----|
G|-----2---2---2---2----|
D|--0---0---0---0----0--|
A|----------------------|
E|----------------------|

Amazing Song!!it took me a while but i think it's right!
            
Submit corrections

comments powered by Disqus
↑ Back to top | Feeder Tabs for Dove Grey Sands. Lyrics for acoustic guitar and electric guitar. Tablatures and chords are parodies/interpretations of the original songs. You may use it for private study, scholarship, research or language learning purposes only