» » »

Feeder, Day In Day Out Tabs (ver.1)

Artists:  A B C D E F G H I J K L M N O P Q R S T U V W X Y Z # 

Day In Day Out Tabs (ver.1)

Feeder Tabs
Rating:
5/5 (2 votes)
Day In Day Out lessons Tabs too difficult? Try these video lessons and learn fast
                

SongTitle: Day In , Day Out

Album :Yesterday Went too soon
Song  :Day in day out




INTRO

E---------------------------------------------------------------------
B---------------------------------------------------------------------
G--------------------------8-8-8-8-----------------------------8-8-8-8
D-8-8-8-8---3-3--6-6-6-6---8-8-8-8-X-X--8-8-8-8--3-3--6-6-6-6--8-8-8-8
A-8-8-8-8---3-3--6-6-6-6---6-6-6-6-X-X--8-8-8-8--3-3--6-6-6-6--6-6-6-6
E-6-6-6-6---1-1--4-4-4-4-----------X-X--6-6-6-6--1-1--4-4-4-4---------



VERSE: Guitar.1  doubled by guitar 2 before Chorus

E-----------------------------------------------------
B-----------------------------------------------------
G-------0------------0------------0----------0--------
D----11---11-------6---6--------9---9------4---4------
A-12-------------7-----------10----------5------------
E-----------------------------------------------------
Were cueing up in twos, wishing for our lives to change............


CHORUS

E-----------------------------------------------------------------
B-----------------------------------------------------------------
G--------------------------8-8-8-8-------------------------8-8-8-8
D-8-8-8-8---3-3--6-6-6-6---8-8-8-8--8-8-8-8--3-3--6-6-6-6--8-8-8-8
A-8-8-8-8---3-3--6-6-6-6---6-6-6-6--8-8-8-8--3-3--6-6-6-6--6-6-6-6
E-6-6-6-6---1-1--4-4-4-4------------6-6-6-6--1-1--4-4-4-4---------



Slipping under the water, don`t think we`ll recover...............


This riff played over the top of the chorus chords (very quietly)
E--------------------------------------------------------
B--------------------------------------------------------
G--15-15-15-15-15-14-14-14-17-17-17-17-17-15-15-14-------
D--------------------------------------------------------
A--------------------------------------------------------
E--------------------------------------------------------



REPEAT VERSE RIFF

SOLO

E-6-6-6-6-6-6-5-5-5-5-8-8-8-8-8-8-6-6-6-6-------
B-6-6-6-6-6-6-6-6-6-6-6-6-6-6-6-6-6-6-6-6-------
G-------------------------------------------
D-------------------------------------------
A-------------------------------------------
E-------------------------------------------

Rhythm guitar plays this below, while the the lead guitar goes mental 
with some kind of harmonizer (i`m guessing)... sounds like something Tom 
Morello would play.   Strumming is not shown, just listen to the cd and 
you will hear

E-------------------------------------
B-------------------------------------
G-10-12--14--15--17-------------------
D-------------------------------------    
A-8--10--12--13--15-------------------
E-------------------------------------  


INTERLUDE

E--------------------
B--------------------
G-15-(Tremelo picked)
D--------------------
A--------------------
E--------------------


FINAL CHORUS

E------------------------------------------------------------------
B------------------------------------------------------------------
G--------------------------8-8-8-8--------------------------8-8-8-8
D-8-8-8-8---3-3--6-6-6-6---8-8-8-8---8-8-8-8--3-3--6-6-6-6--8-8-8-8
A-8-8-8-8---3-3--6-6-6-6---6-6-6-6---8-8-8-8--3-3--6-6-6-6--6-6-6-6
E-6-6-6-6---1-1--4-4-4-4-------------6-6-6-6--1-1--4-4-4-4---------




E--------------------------------------------------------
B--------------------------------------------------------
G--15-15-15-15-15-14-14-14-17-17-17-17-17-15-15-14-------
D--------------------------------------------------------
A--13-13-13-13-13-12-12-12-15-15-15-15-15-13-13-12-------
E--------------------------------------------------------
Slipping under the water, don`t think we`ll recover......


" Life can only be understood backwards, But it must be lived forwards"
            
Submit corrections

comments powered by Disqus
↑ Back to top | Feeder Tabs for Day In Day Out. Lyrics for acoustic guitar and electric guitar. Tablatures and chords are parodies/interpretations of the original songs. You may use it for private study, scholarship, research or language learning purposes only