» » »

Comfort In Sound Tabs (ver.3)

Artists:  A B C D E F G H I J K L M N O P Q R S T U V W X Y Z # 

Comfort In Sound Tabs (ver.3)

Feeder
Rating:
3/5 (4 votes)

Hard to play? Try these video lessons and learn fast.
                Band : Feeder
Song : Comfort in sound

Feeder r the best   

Intro & First Verse
E---------------------------------------|
B---------------------------------------|
G--5-5-5-5-----------7-7-7-7-7-7-7-7----|
D--5-5-5-5--5-5-5-5--7-7-7-7-7-7-7-7----| x3
A--3-3-3-3--5-5-5-5--5-5-5-5-5-5-5-5----|
E-----------3-3-3-3---------------------|

then play

E---------------------------------------|
B---------------------------------------|
G-------------------5-5-5-5-5-5-5-5-----|
D--7-7-7-7-7-7-7-7--5-5-5-5-5-5-5-5-----|
A--7-7-7-7-7-7-7-7--3-3-3-3-3-3-3-3-----|
E--5-5-5-5-5-5-5-5----------------------| x1

2nd verse

E---------------------------------------|
B---------------------------------------|
G--5-5-5-5-----------7-7-7-7-7-7-7-7----|
D--5-5-5-5--5-5-5-5--7-7-7-7-7-7-7-7----| x3
A--3-3-3-3--5-5-5-5--5-5-5-5-5-5-5-5----|
E-----------3-3-3-3---------------------|

then

E---------------------------------------|
B---------------------------------------|
G-------------------5-5-5-5-5-5-5-5-----|
D--7-7-7-7-7-7-7-7--5-5-5-5-5-5-5-5-----|
A--7-7-7-7-7-7-7-7--3-3-3-3-3-3-3-3-----|
E--5-5-5-5-5-5-5-5----------------------| x1


Chorus

E------------------------------------------------------------------------|
B------------------------------------------------------------------------|
G--5-5-5-5--7-7-7-7--------------------5-5-5-5-----------7-7-7-7---------|
D--5-5-5-5--7-7-7-7--5-5-5-5--7-7-7-7--5-5-5-5--5-5-5-5--7-7-7-7--7-7-7-7|
A--3-3-3-3--9-9-9-9--5-5-5-5--7-7-7-7--3-3-3-3--5-5-5-5--5-5-5-5--7-7-7-7|
E--------------------3-3-3-3--5-5-5-5-----------3-3-3-3-----------5-5-5-5|

E------------------------------------------------------------------------|
B------------------------------------------------------------------------|
G--5-5-5-5--7-7-7-7--------------------5-5-5-5-5-5-5-5-5-5-5-5-5-5-5-5---|
D--5-5-5-5--7-7-7-7--5-5-5-5--7-7-7-7--5-5-5-5-5-5-5-5-5-5-5-5-5-5-5-5---|
A--3-3-3-3--9-9-9-9--5-5-5-5--7-7-7-7--3-3-3-3-3-3-3-3-3-3-3-3-3-3-3-3---|
E--------------------3-3-3-3--5-5-5-5------------------------------------|x1

3rd verse

E---------------------------------------|
B---------------------------------------|
G--5-5-5-5-----------7-7-7-7-7-7-7-7----|
D--5-5-5-5--5-5-5-5--7-7-7-7-7-7-7-7----| x5
A--3-3-3-3--5-5-5-5--5-5-5-5-5-5-5-5----|
E-----------3-3-3-3---------------------|

then play

E---------------------------------------|
B---------------------------------------|
G-------------------5-5-5-5-5-5-5-5-----|
D--7-7-7-7-7-7-7-7--5-5-5-5-5-5-5-5-----|
A--7-7-7-7-7-7-7-7--3-3-3-3-3-3-3-3-----|
E--5-5-5-5-5-5-5-5----------------------| x1

Chorus

E------------------------------------------------------------------------|
B------------------------------------------------------------------------|
G--5-5-5-5--7-7-7-7--------------------5-5-5-5-----------7-7-7-7---------|
D--5-5-5-5--7-7-7-7--5-5-5-5--7-7-7-7--5-5-5-5--5-5-5-5--7-7-7-7--7-7-7-7|
A--3-3-3-3--9-9-9-9--5-5-5-5--7-7-7-7--3-3-3-3--5-5-5-5--5-5-5-5--7-7-7-7|
E--------------------3-3-3-3--5-5-5-5-----------3-3-3-3-----------5-5-5-5|

E------------------------------------------------------------------------|
B------------------------------------------------------------------------|
G--5-5-5-5--7-7-7-7--------------------5-5-5-5-5-5-5-5-5-5-5-5-5-5-5-5---|
D--5-5-5-5--7-7-7-7--5-5-5-5--7-7-7-7--5-5-5-5-5-5-5-5-5-5-5-5-5-5-5-5---|
A--3-3-3-3--9-9-9-9--5-5-5-5--7-7-7-7--3-3-3-3-3-3-3-3-3-3-3-3-3-3-3-3---|
E--------------------3-3-3-3--5-5-5-5------------------------------------|x1

Solo

e---6-5---------------------|
B--7-5-5-3-3-5-5-3-5-5-3-5--|
G---------------------------|
D---------------------------|
A---------------------------|
E---------------------------| X2

4th Verse

E---------------------------------------|
B---------------------------------------|
G--5-5-5-5-----------7-7-7-7-7-7-7-7----|
D--5-5-5-5--5-5-5-5--7-7-7-7-7-7-7-7----|x3
A--3-3-3-3--5-5-5-5--5-5-5-5-5-5-5-5----|
E-----------3-3-3-3---------------------|

then play

E---------------------------------------|
B---------------------------------------|
G-------------------5-5-5-5-5-5-5-5-----|
D--7-7-7-7-7-7-7-7--5-5-5-5-5-5-5-5-----|
A--7-7-7-7-7-7-7-7--3-3-3-3-3-3-3-3-----|
E--5-5-5-5-5-5-5-5----------------------| x1


Chorus

E------------------------------------------------------------------------|
B------------------------------------------------------------------------|
G--5-5-5-5--7-7-7-7--------------------5-5-5-5-----------7-7-7-7---------|
D--5-5-5-5--7-7-7-7--5-5-5-5--7-7-7-7--5-5-5-5--5-5-5-5--7-7-7-7--7-7-7-7|
A--3-3-3-3--9-9-9-9--5-5-5-5--7-7-7-7--3-3-3-3--5-5-5-5--5-5-5-5--7-7-7-7|
E--------------------3-3-3-3--5-5-5-5-----------3-3-3-3-----------5-5-5-5|

E------------------------------------------------------------------------|
B------------------------------------------------------------------------|
G--5-5-5-5--7-7-7-7--------------------5-5-5-5-5-5-5-5-5-5-5-5-5-5-5-5---|
D--5-5-5-5--7-7-7-7--5-5-5-5--7-7-7-7--5-5-5-5-5-5-5-5-5-5-5-5-5-5-5-5---|
A--3-3-3-3--9-9-9-9--5-5-5-5--7-7-7-7--3-3-3-3-3-3-3-3-3-3-3-3-3-3-3-3---|
E--------------------3-3-3-3--5-5-5-5------------------------------------|x1




e----------7-7-5-5-5-5---|   
B-8-7-8-7-8-8-8-7-7-7-7--|
G------------------------|  
D------------------------|
A------------------------|
E------------------------|   repeat in background and play at end of song
            
Hard to play? Try these video lessons and learn fast. | Correct




comments powered by Disqus
↑ Back to top | Tablatures and chords are parodies/interpretations of the original songs. You may use it for private study, scholarship, research or language learning purposes only