» » »

Feeder, Choke Tabs (ver.2)

Artists:  A B C D E F G H I J K L M N O P Q R S T U V W X Y Z # 

Choke Tabs (ver.2)

Feeder Tabs
 Rating:
4/5 (4 votes)
Choke lessons Tabs too difficult? Try these video lessons and learn fast
                Intro

-|-----------|--------------|-------------------------------------------------
-|-----------|--------------|-------------------------------------------------
-|-----------|--------------|-------------------------------------------------
-|-5-5-x-3-3-|-5-5-x-3-3----|-------------------------------------------------
-|-5-5-x-3-3-|-5-5-x-3-3----|-------------------------------------------------
-|-3-3-x-1-1-|-3-3-x-1-1/13-|-------------------------------------------------
                                                                              
Verse (2 Guitars needed here, it’s been dubbed) play as necessary.

-|-----------------------------------|--3-----3---|---------------------------
-|-6-6-6-6-6-6-6-6-6-6-6-6-6-5-5-5-5-|---3-----3--|---------------------------
-|-----------------------------------|------------|---------------------------
-|-----------------------------------|------------|---------------------------
-|-----------------------------------|------------|---------------------------
-|-----------------------------------|------------|---------------------------
      
Pre-Chorus (Same as Intro)                                                                      

-|-----------|------------|---------------------------------------------------
-|-----------|------------|---------------------------------------------------
-|-----------|------------|---------------------------------------------------
-|-5-5-x-3-3-|-5-5-x-3----|---------------------------------------------------
-|-5-5-x-3-3-|-5-5-x-3----|---------------------------------------------------
-|-3-3-x-1-1-|-3-3-x-1/13-|---------------------------------------------------

Chorus                                                              

-|---------------------------------|-----------------------------------|------
-|---------------------------------|-----------------------------------|------
-|-5-5-5-5-5-5-5-5-8-8-8-8-3-3-3-3-|-5-5-5-5-5-5-5-5-5-----------------|------
-|-5-5-5-5-5-5-5-5-8-8-8-8-3-3-3-3-|-5-5-5-5-5-5-5-5-5-8-8-8-8-3-3-3-3-|------
-|-3-3-3-3-3-3-3-3-5-5-5-5-1-1-1-1-|-3-3-3-3-3-3-3-3-3-8-8-8-8-3-3-3-3-|------
-|---------------------------------|-------------------6-6-6-6-1-1-1-1-|------
                                                                              
Verse #2

-|--------------------------|------------------------|------------------------
-|--------------------------|------------------------|------------------------
-|-5-5--------------8-8-8-8-|-5--------------8-8-8-8-|------------------------
-|-5-5--2-2-4-4-5-5-8-8-8-8-|-5--4-4-5-5-6-6-8-8-8-8-|------------------------
-|-3-3--2-2-4-4-5-5-6-6-6-6-|-3--4-4-5-5-6-6-6-6-6-6-|------------------------
-|------0-0-2-2-3-3---------|----2-2-3-3-4-4---------|------------------------
                                                                              
Song Structure

Intro X2
Verse X10
Pre-Chorus X2
Chorus X2
Verse X8
Pre-Chorus X2
Chorus X3
Verse #2 X2
Verse X2
Pre-Chorus X4
Chorus X4
Pre-Chorus / First Half X1

Enjoy, listen to the song to get timing, I'm pretty sure that's 100% correct.
            
Submit corrections

comments powered by Disqus
↑ Back to top | Feeder Tabs for Choke. Lyrics for acoustic guitar and electric guitar. Tablatures and chords are parodies/interpretations of the original songs. You may use it for private study, scholarship, research or language learning purposes only