» » »

Feeder, Buck Rodgers Bass tabs (ver.1)

Artists:  A B C D E F G H I J K L M N O P Q R S T U V W X Y Z # 

Buck Rodgers Bass tabs (ver.1)

Feeder Tabs
 Rating:
4/5 (4 votes)
Buck Rodgers lessons Tabs too difficult? Try these video lessons and learn fast
                No bass in intro.

Verse (From the PLAYER PLAYER PLAYER part)
G:--------------------
D:--------------------
A:--------------------
E:-000000000-444-5555-  x2

G:-------------
D:-------------
A:-------------
E:-777777777-5-


Chorus
G:-----------------------------------------------------------------------
D:-----------------------------------------------------------------------
A:-----------------------------------------------------------------------
E:-00000000-77777777-99999999-55555555-00000000-77777777-5555555555555555

G:-------------------------------------
D:-------------------------------------
A:-------------------------------------
E:-000000000-444-5-5-000000000-444-5-5-


Verse


Chorus x2


Bridge
G:---------------------------------
D:---------------------------------
A:---------------------------------
E:-2222-4-5-555-8888-2222-4-5555555


Solo:
G:-13-13-13--11-11-11-11-11--------------------------
D:---------------------------13-13-13--11-11-11-11-11
A:---------------------------------------------------
E:---------------------------------------------------

G:-13-13-13--11-11-11-11-11--------------------------
D:---------------------------13-13-13--14-14-14-14-14
A:---------------------------------------------------
E:---------------------------------------------------

G:-13-13-13--11-11-11-11-11--------------------------
D:---------------------------13-13-13--11-11-11-11-11
A:---------------------------------------------------
E:---------------------------------------------------

G:13-13-13--11-11-11-11-11
D:------------------------
A:------------------------
E:------------------------


After Solo
G:--------------------------------------
D:--------------------------------------
A:--------------------------------------
E:-000000000-444-5555-000000000-444-5555


Chorus x2


Outro
G:-------------------------------------
D:-------------------------------------
A:-------------------------------------
E:-000000000-444-5-5-000000000-444-5-5-
            
Submit corrections

comments powered by Disqus
↑ Back to top | Feeder Bass for Buck Rodgers. Lyrics for acoustic guitar and electric guitar. Tablatures and chords are parodies/interpretations of the original songs. You may use it for private study, scholarship, research or language learning purposes only