» » »

Feedback, Proverbial Heartbreak Tabs (ver.1)

Artists:  A B C D E F G H I J K L M N O P Q R S T U V W X Y Z # 

Proverbial Heartbreak Tabs (ver.1)

Feedback Tabs
 Rating:
4/5 (4 votes)
Proverbial Heartbreak lessons Tabs too difficult? Try these video lessons and learn fast
1
                ----------------------------------------------------------------------------
                      Proverbial Heartbreak - The Feedback
----------------------------------------------------------------------------

Tuning: Normal

Intro

e|-------------------------------------------------------------------------|
B|-------------------------------------------------------------------------|
G|-------------------------------------------------------------------------|
D|--7-->----2-->----7-->----2-->-------------------------------------------|
A|--7-->----2-->----7-->----2-->-------------------------------------------|
E|--5-->----0-->----5-->----0-->-------------------------------------------|

Verse (Palm Mute. Each Chord goes 15 times, if you're counting)

e|-------------------------------------------------------------------------|
B|-------------------------------------------------------------------------|
G|-------------------------------------------------------------------------|
D|--7---------------5---------------9---------------7----------------------|
A|--7---------------5---------------9---------------7----------------------|
E|--5---------------3---------------7---------------5----------------------|
I'm beginning to feel pleasure in knowing it's been worth the while...

Chorus:

e|-------------------------------------------------------------------------|
B|-------------------------------------------------------------------------|
G|-------------------------------------------------------------------------|
D|--555555555555555-------77777777-----------------------------------------|
A|--555555555555555-------77777777-----------------------------------------|
E|--333333333333333-------55555555-----------------------------------------|
Breaking away from the    |stagger| 
                          two of us 

e|-------------------------------------------------------------------------|
B|-------------------------------------------------------------------------|
G|-------------------------------------------------------------------------|
D|--555555555555555-------77777777-----------------------------------------|
A|--555555555555555-------77777777-----------------------------------------|
E|--333333333333333-------55555555-----------------------------------------|
Breaking away from the    |stagger| 
                          two of us 

Verse 2 (Palm Mute. Each Chord goes 15 times, if you're counting)

e|-------------------------------------------------------------------------|
B|-------------------------------------------------------------------------|
G|-------------------------------------------------------------------------|
D|--7---------------5---------------9---------------7----------------------|
A|--7---------------5---------------9---------------7----------------------|
E|--5---------------3---------------7---------------5----------------------|
You never brought me the happiness I wanted...

Guitar one plays this part again, and Guitar two plays this: (stagger each chord)

e|--5555---3333---7777---5555----------------------------------------------|
B|--5555---3333---7777---5555----------------------------------------------|
G|--5555---3333---7777---5555----------------------------------------------|
D|-------------------------------------------------------------------------|
A|-------------------------------------------------------------------------|
E|-------------------------------------------------------------------------|
I want to hide away from who and what I used to love....


Chorus:

e|-------------------------------------------------------------------------|
B|-------------------------------------------------------------------------|
G|-------------------------------------------------------------------------|
D|--555555555555555-------77777777-----------------------------------------|
A|--555555555555555-------77777777-----------------------------------------|
E|--333333333333333-------55555555-----------------------------------------|
Breaking away from the    |stagger| 
                          two of us 

e|-------------------------------------------------------------------------|
B|-------------------------------------------------------------------------|
G|-------------------------------------------------------------------------|
D|--555555555555555-------77777777-----------------------------------------|
A|--555555555555555-------77777777-----------------------------------------|
E|--333333333333333-------55555555-----------------------------------------|
Breaking away from the    |stagger| 
                          two of us 

Interlude: Guitar one, with volume down

e|-------------------------------------------------------------------------|
B|-------------------------------------------------------------------------|
G|-------------------------------------------------------------------------|
D|--77777777--55555555--99999999--77777777---------------------------------|
A|--77777777--55555555--99999999--77777777---------------------------------|
E|--55555555--33333333--77777777--55555555---------------------------------|
                                  |Palm mute|
                                  |with vol. back up|

Interlude: Guitar two

e|----4---4----4---4------2---2------6----7------4-----4-------------------|
B|---5-5-5-5--5-5-5-5----3-3-3-3----7-7--6-6----5-5----5-------------------|
G|--6---6---66---6---6--4---4---4--8---68---8--6---6---6-------------------|
D|-------------------------------------------------------------------------|
A|-------------------------------------------------------------------------|
E|-------------------------------------------------------------------------|
And it was all you ever wanted...

Chorus:

e|-------------------------------------------------------------------------|
B|-------------------------------------------------------------------------|
G|-------------------------------------------------------------------------|
D|--555555555555555-------77777777-----------------------------------------|
A|--555555555555555-------77777777-----------------------------------------|
E|--333333333333333-------55555555-----------------------------------------|
Breaking away from the    |stagger| 
                          two of us 

e|-------------------------------------------------------------------------|
B|-------------------------------------------------------------------------|
G|-------------------------------------------------------------------------|
D|--555555555555555-------77777777-----------------------------------------|
A|--555555555555555-------77777777-----------------------------------------|
E|--333333333333333-------55555555-----------------------------------------|
Breaking away from the    |stagger| 
                          two of us 
e|-------------------------------------------------------------------------|
B|-------------------------------------------------------------------------|
G|-------------------------------------------------------------------------|
D|------------------------77777777-----------------------------------------|
A|------------------------77777777-----------------------------------------|
E|------------------------55555555-----------------------------------------|
Breaking away from the    |stagger| 
                          two of us 
^^All instruments silent for vocals


e|-------------------------------------------------------------------------|
B|-------------------------------------------------------------------------|
G|-------------------------------------------------------------------------|
D|--555555555555555-------77777777-----------------------------------------|
A|--555555555555555-------77777777-----------------------------------------|
E|--333333333333333-------55555555-----------------------------------------|
Breaking away from the    |stagger| 
                          two of us 


| /  slide up
| \  slide down
| h  hammer-on
| p  pull-off
| ~  vibrato
| +  harmonic
| x  Mute note
============================================================================
            
Submit corrections

comments powered by Disqus
↑ Back to top | Feedback Tabs for Proverbial Heartbreak. Lyrics for acoustic guitar and electric guitar. 1 Tablatures and chords are parodies/interpretations of the original songs. You may use it for private study, scholarship, research or language learning purposes only